  0
SECTION
  2
HEADER
  9
$ACADVER
  1
AC1009
  9
$INSBASE
 10
0.0
 20
0.0
 30
0.0
  9
$EXTMIN
 10
471.1806062734057718
 20
-0.122082210688859
 30
-0.000000000000013
  9
$EXTMAX
 10
3890.1781325649621976
 20
2668.6369139087069016
 30
0.0000000000000023
  9
$LIMMIN
 10
0.0
 20
0.0
  9
$LIMMAX
 10
3890.0
 20
2660.0
  9
$ORTHOMODE
 70
     1
  9
$REGENMODE
 70
     1
  9
$FILLMODE
 70
     1
  9
$QTEXTMODE
 70
     0
  9
$MIRRTEXT
 70
     0
  9
$DRAGMODE
 70
     2
  9
$LTSCALE
 40
100.0
  9
$OSMODE
 70
  4095
  9
$ATTMODE
 70
     1
  9
$TEXTSIZE
 40
25.0
  9
$TRACEWID
 40
0.05
  9
$TEXTSTYLE
  7
TITLE3
  9
$CLAYER
  8
AM_5
  9
$CELTYPE
  6
BYLAYER
  9
$CECOLOR
 62
   256
  9
$DIMSCALE
 40
1.0
  9
$DIMASZ
 40
0.12
  9
$DIMEXO
 40
0.05
  9
$DIMDLI
 40
0.5
  9
$DIMRND
 40
0.0
  9
$DIMDLE
 40
0.0
  9
$DIMEXE
 40
0.1
  9
$DIMTP
 40
0.1
  9
$DIMTM
 40
0.1
  9
$DIMTXT
 40
0.12
  9
$DIMCEN
 40
0.0
  9
$DIMTSZ
 40
0.0
  9
$DIMTOL
 70
     0
  9
$DIMLIM
 70
     0
  9
$DIMTIH
 70
     1
  9
$DIMTOH
 70
     1
  9
$DIMSE1
 70
     0
  9
$DIMSE2
 70
     0
  9
$DIMTAD
 70
     0
  9
$DIMZIN
 70
     7
  9
$DIMBLK
  1

  9
$DIMASO
 70
     0
  9
$DIMSHO
 70
     0
  9
$DIMPOST
  1

  9
$DIMAPOST
  1
mm
  9
$DIMALT
 70
     0
  9
$DIMALTD
 70
     2
  9
$DIMALTF
 40
25.3999999999999986
  9
$DIMLFAC
 40
1.0
  9
$DIMTOFL
 70
     0
  9
$DIMTVP
 40
0.0
  9
$DIMTIX
 70
     0
  9
$DIMSOXD
 70
     0
  9
$DIMSAH
 70
     0
  9
$DIMBLK1
  1

  9
$DIMBLK2
  1

  9
$DIMSTYLE
  2
AM_ANSI
  9
$DIMCLRD
 70
   256
  9
$DIMCLRE
 70
   256
  9
$DIMCLRT
 70
     2
  9
$DIMTFAC
 40
0.71
  9
$DIMGAP
 40
0.06
  9
$LUNITS
 70
     2
  9
$LUPREC
 70
     2
  9
$SKETCHINC
 40
0.1
  9
$FILLETRAD
 40
0.0
  9
$AUNITS
 70
     0
  9
$AUPREC
 70
     2
  9
$MENU
  1
\acad12\support\cnc
  9
$ELEVATION
 40
0.0
  9
$PELEVATION
 40
0.0
  9
$THICKNESS
 40
0.0
  9
$LIMCHECK
 70
     0
  9
$BLIPMODE
 70
     0
  9
$CHAMFERA
 40
0.0
  9
$CHAMFERB
 40
0.0
  9
$SKPOLY
 70
     0
  9
$TDCREATE
 40
2450764.4272453710436821
  9
$TDUPDATE
 40
2458892.430127315223217
  9
$TDINDWG
 40
1.5962625579
  9
$TDUSRTIMER
 40
1.5962559837999999
  9
$USRTIMER
 70
     1
  9
$ANGBASE
 50
0.0
  9
$ANGDIR
 70
     0
  9
$PDMODE
 70
     2
  9
$PDSIZE
 40
10.0
  9
$PLINEWID
 40
0.0
  9
$COORDS
 70
     1
  9
$SPLFRAME
 70
     0
  9
$SPLINETYPE
 70
     6
  9
$SPLINESEGS
 70
     8
  9
$ATTDIA
 70
     1
  9
$ATTREQ
 70
     1
  9
$HANDLING
 70
     1
  9
$HANDSEED
  5
806F
  9
$SURFTAB1
 70
     6
  9
$SURFTAB2
 70
     6
  9
$SURFTYPE
 70
     6
  9
$SURFU
 70
     6
  9
$SURFV
 70
     6
  9
$UCSNAME
  2

  9
$UCSORG
 10
0.0
 20
0.0
 30
0.0
  9
$UCSXDIR
 10
1.0
 20
0.0
 30
0.0
  9
$UCSYDIR
 10
0.0
 20
1.0
 30
0.0
  9
$PUCSNAME
  2

  9
$PUCSORG
 10
0.0
 20
0.0
 30
0.0
  9
$PUCSXDIR
 10
1.0
 20
0.0
 30
0.0
  9
$PUCSYDIR
 10
0.0
 20
1.0
 30
0.0
  9
$USERI1
 70
     0
  9
$USERI2
 70
     0
  9
$USERI3
 70
     0
  9
$USERI4
 70
     0
  9
$USERI5
 70
     0
  9
$USERR1
 40
0.0
  9
$USERR2
 40
0.0
  9
$USERR3
 40
0.0
  9
$USERR4
 40
0.0
  9
$USERR5
 40
0.0
  9
$WORLDVIEW
 70
     1
  9
$SHADEDGE
 70
     3
  9
$SHADEDIF
 70
    70
  9
$TILEMODE
 70
     1
  9
$MAXACTVP
 70
    16
  9
$PLIMCHECK
 70
     0
  9
$PEXTMIN
 10
1.0000000000000000E+20
 20
1.0000000000000000E+20
 30
1.0000000000000000E+20
  9
$PEXTMAX
 10
-1.0000000000000000E+20
 20
-1.0000000000000000E+20
 30
-1.0000000000000000E+20
  9
$PLIMMIN
 10
0.0
 20
0.0
  9
$PLIMMAX
 10
12.0
 20
9.0
  9
$UNITMODE
 70
     0
  9
$VISRETAIN
 70
     0
  9
$PLINEGEN
 70
     0
  9
$PSLTSCALE
 70
     0
  0
ENDSEC
  0
SECTION
  2
TABLES
  0
TABLE
  2
VPORT
 70
     1
  0
VPORT
  2
*ACTIVE
 70
     0
 10
0.0
 20
0.0
 11
1.0
 21
1.0
 12
-728.6426256084555462
 22
269.3157468213137236
 13
0.0
 23
0.0
 14
25.0
 24
25.0
 15
100.0
 25
100.0
 16
0.0
 26
0.0
 36
1.0
 17
2909.3219950276388772
 27
1064.9416690276950703
 37
-0.7257469300703157
 40
2685.9767960943590879
 41
1.6264800861141011
 42
50.0
 43
0.0
 44
0.0
 50
0.0
 51
0.0
 71
     0
 72
   100
 73
     1
 74
     0
 75
     0
 76
     0
 77
     0
 78
     0
  0
ENDTAB
  0
TABLE
  2
LTYPE
 70
    12
  0
LTYPE
  2
CONTINUOUS
 70
     0
  3
Solid line
 72
    65
 73
     0
 40
0.0
  0
LTYPE
  2
PHANTOM2
 70
     0
  3
Phantom (.5x) ___ _ _ ___ _ _ ___ _ _ ___ _ _
 72
    65
 73
     6
 40
1.25
 49
0.625
 49
-0.125
 49
0.125
 49
-0.125
 49
0.125
 49
-0.125
  0
LTYPE
  2
PHANTOM
 70
     0
  3
Phantom ______  __  __  ______  __  __  ______
 72
    65
 73
     6
 40
2.5
 49
1.25
 49
-0.25
 49
0.25
 49
-0.25
 49
0.25
 49
-0.25
  0
LTYPE
  2
HIDDEN
 70
     0
  3
__ __ __ __ __ __ __ __ __ __ __ __ __ __ __ __
 72
    65
 73
     2
 40
0.375
 49
0.25
 49
-0.125
  0
LTYPE
  2
DASHED
 70
     0
  3
Dashed __ __ __ __ __ __ __ __ __ __ __ __ __ _
 72
    65
 73
     2
 40
0.75
 49
0.5
 49
-0.25
  0
LTYPE
  2
DOT
 70
     0
  3
Dot . . . . . . . . . . . . . . . . . . . . . .
 72
    65
 73
     2
 40
0.25
 49
0.0
 49
-0.25
  0
LTYPE
  2
CENTER
 70
     0
  3
Center ____ _ ____ _ ____ _ ____ _ ____ _ ____
 72
    65
 73
     4
 40
2.0
 49
1.25
 49
-0.25
 49
0.25
 49
-0.25
  0
LTYPE
  2
CENTER2
 70
     0
  3
Center (.5x) ___ _ ___ _ ___ _ ___ _ ___ _ ___
 72
    65
 73
     4
 40
1.125
 49
0.75
 49
-0.125
 49
0.125
 49
-0.125
  0
LTYPE
  2
HIDDEN2
 70
     0
  3
Hidden (.5x) _ _ _ _ _ _ _ _ _ _ _ _ _ _ _ _ _
 72
    65
 73
     2
 40
0.1875
 49
0.125
 49
-0.0625
  0
LTYPE
  2
ACANSTGB
 70
     0
  3
__ . . __ . .
 72
    65
 73
     6
 40
0.35433070866
 49
0.15748031496
 49
-0.03937007874
 49
0.03937007874
 49
-0.03937007874
 49
0.03937007874
 49
-0.03937007874
  0
LTYPE
  2
ACANSTGL
 70
     0
  3
_ _ _ _ _
 72
    65
 73
     2
 40
0.11811023622
 49
0.07874015748
 49
-0.03937007874
  0
ENDTAB
  0
TABLE
  2
LAYER
 70
     2
  0
LAYER
  2
0
 70
     0
 62
     7
  6
CONTINUOUS
  0
LAYER
  2
AM_5
 70
     0
 62
     3
  6
CONTINUOUS
  0
ENDTAB
  0
TABLE
  2
STYLE
 70
     7
  0
STYLE
  2
STANDARD
 70
     0
 40
0.0
 41
1.0
 50
0.0
 71
     0
 42
0.2
  3
txt
  4

  0
STYLE
  2
ANNOTATIVE
 70
     0
 40
0.0
 41
1.0
 50
0.0
 71
     0
 42
0.2
  3
txt
  4

  0
STYLE
  2
TITLE3
 70
     0
 40
25.0
 41
1.0
 50
0.0
 71
     0
 42
25.0
  3
SIMPLEX.shx
  4

  0
STYLE
  2
SIMPLEX
 70
     0
 40
40.0
 41
1.0
 50
0.0
 71
     0
 42
25.0
  3
SIMPLEX
  4

  0
STYLE
  2
TITLE5
 70
     0
 40
25.0
 41
1.0
 50
0.0
 71
     0
 42
25.0
  3
SIMPLEX
  4

  0
STYLE
  2
ACANSTS
 70
     0
 40
1.0
 41
1.0
 50
0.0
 71
     0
 42
25.0
  3
romans.shx
  4

  0
STYLE
  2
ACANSGDT
 70
     0
 40
0.0
 41
1.0
 50
0.0
 71
     0
 42
25.0
  3
amgdt.shx
  4

  0
ENDTAB
  0
TABLE
  2
VIEW
 70
     0
  0
ENDTAB
  0
TABLE
  2
UCS
 70
     0
  0
ENDTAB
  0
TABLE
  2
APPID
 70
    35
  0
APPID
  2
ACAD
 70
     0
  0
APPID
  2
ACADANNOTATIVE
 70
     0
  0
APPID
  2
ACAD_MLEADERVER
 70
     0
  0
APPID
  2
ACAD_EXEMPT_FROM_CAD_STANDARDS
 70
     0
  0
APPID
  2
ACAECLAYERSTANDARD
 70
     0
  0
APPID
  2
ACAD_DSTYLE_DIMTEXT_FILL
 70
     0
  0
APPID
  2
ACAD_DSTYLE_DIMEXT_LENGTH
 70
     0
  0
APPID
  2
ACAD_DSTYLE_DIMEXT_ENABLED
 70
     0
  0
APPID
  2
ACAD_DSTYLE_DIM_LINETYPE
 70
     0
  0
APPID
  2
ACAD_DSTYLE_DIM_EXT1_LINETYPE
 70
     0
  0
APPID
  2
ACAD_DSTYLE_DIM_EXT2_LINETYPE
 70
     0
  0
APPID
  2
ACAD_DSTYLE_DIMJOGGED_JOGA
 70
     0
  0
APPID
  2
ACAD_DSTYLE_DIMARC_LENGTH_
 70
     0
  0
APPID
  2
ACAD_PSEXT
 70
     0
  0
APPID
  2
CONTENTBLOCKICON
 70
     0
  0
APPID
  2
GENIUS_GENDIM_13
 70
     0
  0
APPID
  2
GENIUS_GENDTOL_13
 70
     0
  0
APPID
  2
GENIUS_GE3DTOL_13
 70
     0
  0
APPID
  2
MCAD_NO_VIS
 70
     0
  0
APPID
  2
ACAD_TEMP_GRAPHIC
 70
     0
  0
APPID
  2
AD_DRAW
 70
     0
  0
APPID
  2
ACATTRIBSERVICES
 70
     0
  0
APPID
  2
ASURF_PCURVE_APPNAME
 70
     0
  0
APPID
  2
AMG_3D2D_5_0
 70
     0
  0
APPID
  2
DESIGNERASSEMBLIES
 70
     0
  0
APPID
  2
ACADM_DIM_EDIT
 70
     0
  0
APPID
  2
AMDT_DM_ADJ
 70
     0
  0
APPID
  2
AMG_3D2D_5_00
 70
     0
  0
APPID
  2
AMG_3D2D_5_01
 70
     0
  0
APPID
  2
ACAD_DSTYLE_DIMBREAK
 70
     0
  0
APPID
  2
ACAD_DSTYLE_DIMJAG
 70
     0
  0
APPID
  2
ACAD_NAV_VCDISPLAY
 70
     0
  0
APPID
  2
GENIUS_GENREC_14
 70
     0
  0
APPID
  2
GENIUS_GENODEF_13
 70
     0
  0
APPID
  2
GENIUS_GENOBJ-N-REC_13
 70
     0
  0
ENDTAB
  0
TABLE
  2
DIMSTYLE
 70
     9
  0
DIMSTYLE
  2
STANDARD
 70
     0
  3

  4

  5

  6

  7

 40
1.0
 41
0.18
 42
0.0625
 43
0.38
 44
0.18
 45
0.0
 46
0.0
 47
0.0
 48
0.0
140
0.18
141
0.09
142
0.0
143
25.3999999999999986
144
1.0
145
0.0
146
1.0
147
0.09
 71
     0
 72
     0
 73
     1
 74
     1
 75
     0
 76
     0
 77
     0
 78
     0
170
     0
171
     2
172
     0
173
     0
174
     0
175
     0
176
     0
177
     0
178
     0
  0
DIMSTYLE
  2
ANNOTATIVE
 70
     0
  3

  4

  5

  6

  7

 40
1.0
 41
0.18
 42
0.0625
 43
0.38
 44
0.18
 45
0.0
 46
0.0
 47
0.0
 48
0.0
140
0.18
141
0.09
142
0.0
143
25.3999999999999986
144
1.0
145
0.0
146
1.0
147
0.09
 71
     0
 72
     0
 73
     1
 74
     1
 75
     0
 76
     0
 77
     0
 78
     0
170
     0
171
     2
172
     0
173
     0
174
     0
175
     0
176
     0
177
     0
178
     0
  0
DIMSTYLE
  2
AM_ANSI
 70
     0
  3

  4
mm
  5

  6

  7

 40
1.0
 41
0.12
 42
0.05
 43
0.5
 44
0.1
 45
0.0
 46
0.0
 47
0.1
 48
0.1
140
0.12
141
0.0
142
0.0
143
25.3999999999999986
144
1.0
145
0.0
146
0.71
147
0.06
 71
     0
 72
     0
 73
     1
 74
     1
 75
     0
 76
     0
 77
     0
 78
     7
170
     0
171
     2
172
     0
173
     0
174
     0
175
     0
176
   256
177
   256
178
     2
  0
DIMSTYLE
  2
AM_ANSI$3
 70
     0
  3

  4
mm
  5

  6

  7

 40
1.0
 41
0.12
 42
0.05
 43
0.5
 44
0.1
 45
0.0
 46
0.0
 47
0.1
 48
0.1
140
0.12
141
0.0
142
0.0
143
25.3999999999999986
144
1.0
145
0.0
146
0.71
147
0.06
 71
     0
 72
     0
 73
     1
 74
     1
 75
     0
 76
     0
 77
     0
 78
     7
170
     0
171
     2
172
     0
173
     0
174
     0
175
     0
176
   256
177
   256
178
     2
  0
DIMSTYLE
  2
AM_ANSI$4
 70
     0
  3

  4
mm
  5

  6

  7

 40
1.0
 41
0.12
 42
0.05
 43
0.5
 44
0.1
 45
0.0
 46
0.0
 47
0.1
 48
0.1
140
0.12
141
0.0
142
0.0
143
25.3999999999999986
144
1.0
145
0.0
146
0.71
147
0.06
 71
     0
 72
     0
 73
     1
 74
     1
 75
     0
 76
     0
 77
     0
 78
     7
170
     0
171
     2
172
     0
173
     0
174
     0
175
     0
176
   256
177
   256
178
     2
  0
DIMSTYLE
  2
AM_ANSI$7
 70
     0
  3

  4
mm
  5

  6

  7

 40
1.0
 41
0.12
 42
0.05
 43
0.5
 44
0.1
 45
0.0
 46
0.0
 47
0.1
 48
0.1
140
0.12
141
0.0
142
0.0
143
25.3999999999999986
144
1.0
145
0.0
146
0.71
147
0.06
 71
     0
 72
     0
 73
     1
 74
     1
 75
     0
 76
     0
 77
     0
 78
     7
170
     0
171
     2
172
     0
173
     0
174
     0
175
     0
176
   256
177
   256
178
     2
  0
DIMSTYLE
  2
AM_ANSI$SF
 70
     0
  3

  4
mm
  5

  6

  7

 40
1.0
 41
0.12
 42
0.05
 43
0.5
 44
0.1
 45
0.0
 46
0.0
 47
0.1
 48
0.1
140
0.12
141
0.0
142
0.0
143
25.3999999999999986
144
1.0
145
0.0
146
0.71
147
0.06
 71
     0
 72
     0
 73
     1
 74
     1
 75
     1
 76
     1
 77
     0
 78
     7
170
     0
171
     2
172
     0
173
     0
174
     0
175
     0
176
   256
177
   256
178
     2
  0
DIMSTYLE
  2
AM_ANSI$SH
 70
     0
  3

  4
mm
  5

  6

  7

 40
1.0
 41
0.12
 42
0.05
 43
0.5
 44
0.1
 45
0.0
 46
0.0
 47
0.1
 48
0.1
140
0.12
141
0.0
142
0.0
143
25.3999999999999986
144
1.0
145
0.0
146
0.71
147
0.06
 71
     0
 72
     0
 73
     1
 74
     1
 75
     1
 76
     1
 77
     0
 78
     7
170
     0
171
     2
172
     0
173
     1
174
     0
175
     0
176
   256
177
   256
178
     2
  0
ENDTAB
  0
ENDSEC
  0
SECTION
  2
BLOCKS
  0
BLOCK
  8
0
  2
$MODEL_SPACE
 70
     0
 10
0.0
 20
0.0
 30
0.0
  3
$MODEL_SPACE
  1

  0
ENDBLK
  5
7FBF
  8
0
  0
BLOCK
 67
     1
  8
0
  2
$PAPER_SPACE
 70
     0
 10
0.0
 20
0.0
 30
0.0
  3
$PAPER_SPACE
  1

  0
ENDBLK
  5
7FBB
 67
     1
  8
0
  0
BLOCK
  8
0
  2
GENAXEH
 70
     0
 10
0.0
 20
0.0
 30
0.0
  3
GENAXEH
  1

  0
LINE
  5
699B
  8
0
 10
-1.0
 20
0.0
 30
0.0
 11
1.0
 21
0.0
 31
0.0
  0
ENDBLK
  5
699D
  8
0
  0
ENDSEC
  0
SECTION
  2
ENTITIES
  0
LINE
  5
23F5
  8
0
 62
     7
 10
1829.0891575777900471
 20
2304.9584724746077882
 30
0.0
 11
1800.5565555924049477
 21
2272.7852398474201436
 31
0.0
  0
LINE
  5
23F7
  8
0
 62
     7
 10
1790.50658161487695
 20
2322.4242733136197785
 30
0.0
 11
1810.6065295699329454
 21
2322.4242733136197785
 31
0.0
  0
LINE
  5
23F8
  8
0
 62
     7
 10
1810.6065295699329454
 20
2322.4242733136197785
 30
0.0
 11
1810.6065295699329454
 21
2304.9584724746059692
 31
0.0
  0
LINE
  5
23F9
  8
0
 62
     7
 10
1810.6065295699329454
 20
2304.9584724746059692
 30
0.0
 11
1829.0891575777900471
 21
2304.9584724746077882
 31
0.0
  0
LINE
  5
23FD
  8
0
 62
     7
 10
1772.0239536070218946
 20
2304.9584724746077882
 30
0.0
 11
1800.5565555924049477
 21
2272.7852398474201436
 31
0.0
  0
LINE
  5
23FE
  8
0
 62
     7
 10
1790.50658161487695
 20
2322.4242733136197785
 30
0.0
 11
1790.50658161487695
 21
2304.9584724746059692
 31
0.0
  0
LINE
  5
23FF
  8
0
 62
     7
 10
1790.50658161487695
 20
2304.9584724746059692
 30
0.0
 11
1772.0239536070218946
 21
2304.9584724746077882
 31
0.0
  0
LINE
  5
2400
  8
0
 62
     7
 10
1829.0891575777900471
 20
1741.9420020940319773
 30
0.0
 11
1800.5565555924049477
 21
1709.7687694668450149
 31
0.0
  0
LINE
  5
2401
  8
0
 62
     7
 10
1790.50658161487695
 20
1759.4078029330419213
 30
0.0
 11
1810.6065295699340822
 21
1759.4078029330419213
 31
0.0
  0
LINE
  5
2402
  8
0
 62
     7
 10
1810.6065295699340822
 20
1759.4078029330419213
 30
0.0
 11
1810.6065295699340822
 21
1741.9420020940319773
 31
0.0
  0
LINE
  5
2403
  8
0
 62
     7
 10
1810.6065295699340822
 20
1741.9420020940319773
 30
0.0
 11
1829.0891575777900471
 21
1741.9420020940319773
 31
0.0
  0
LINE
  5
2404
  8
0
 62
     7
 10
1772.0239536070209851
 20
1741.9420020940319773
 30
0.0
 11
1800.5565555924049477
 21
1709.7687694668450149
 31
0.0
  0
LINE
  5
2405
  8
0
 62
     7
 10
1790.50658161487695
 20
1759.4078029330419213
 30
0.0
 11
1790.50658161487695
 21
1741.9420020940319773
 31
0.0
  0
LINE
  5
2406
  8
0
 62
     7
 10
1790.50658161487695
 20
1741.9420020940319773
 30
0.0
 11
1772.0239536070209851
 21
1741.9420020940319773
 31
0.0
  0
LINE
  5
30F6
  8
0
 62
     7
 10
3890.0000000001559783
 20
0.0
 30
0.0
 11
471.4306517100744145
 21
0.0
 31
0.0
  0
LINE
  5
30F7
  8
0
 62
     7
 10
471.4306517100736755
 20
0.0
 30
0.0
 11
471.4306517100736755
 21
2668.5147229613089621
 31
0.0
  0
LINE
  5
30F8
  8
0
 62
     7
 10
471.4306517100736755
 20
2668.5147229613080526
 30
0.0
 11
3890.0000000001559783
 21
2668.5147229613080526
 31
0.0
  0
LINE
  5
30F9
  8
0
 62
     7
 10
3890.0000000001559783
 20
2668.5147229613080526
 30
0.0
 11
3890.0000000001559783
 21
0.0
 31
0.0
  0
TEXT
  5
3AC8
  8
0
 62
     7
 10
535.0680587574438505
 20
51.5054056450702902
 30
0.0
 40
33.5999999999967329
  1
available on request
  7
TITLE3
  0
TEXT
  5
3AC9
  8
0
 62
     7
 10
535.0680587574438505
 20
109.105405645064593
 30
0.0
 40
33.5999999999967329
  1
Certified dimensions
  7
TITLE3
  0
TEXT
  5
3ACA
  8
0
 62
     7
 10
535.0680587574438505
 20
166.705405645058903
 30
0.0
 40
33.5999999999967329
  1
without notice or obligation.
  7
TITLE3
  0
TEXT
  5
3ACB
  8
0
 62
     7
 10
535.0680587574438505
 20
224.3054056450532983
 30
0.0
 40
33.5999999999967329
  1
specifications at any time
  7
TITLE3
  0
TEXT
  5
3ACC
  8
0
 62
     7
 10
535.0680587574438505
 20
281.9054056450477788
 30
0.0
 40
33.5999999999967329
  1
the right to change 
  7
TITLE3
  0
TEXT
  5
3ACD
  8
0
 62
     7
 10
535.0680587574438505
 20
397.1054056450361145
 30
0.0
 40
33.5999999999967329
  1
NOTE
  7
TITLE3
  0
TEXT
  5
3ACE
  8
0
 62
     7
 10
535.0680587574438505
 20
339.5054056450421172
 30
0.0
 40
33.5999999999967329
  1
The manufacturer reserves
  7
TITLE3
  0
TEXT
  5
430A
  8
0
 62
     7
 10
2662.1093390533142156
 20
1932.5696667207480459
 30
0.0
 40
25.0
  1
ELECTRIC
  7
TITLE3
  0
TEXT
  5
430B
  8
0
 62
     7
 10
2662.1093390533142156
 20
1890.9030000540799392
 30
0.0
 40
25.0
  1
BOX
  7
TITLE3
  0
SOLID
  5
430C
  8
0
 62
     7
 10
2550.0491581695400782
 20
1899.9612727287860707
 30
0.0
 11
2520.7821562319250006
 21
1891.688268583747913
 31
0.0
 12
2545.7840215853298105
 22
1909.0060839439529445
 32
0.0
 13
2545.7840215853298105
 23
1909.0060839439529445
 33
0.0
  0
TEXT
  5
4438
  8
0
 62
     7
 10
2573.6560087405000559
 20
346.7221498226609242
 30
0.0
 40
62.5
  1
temperzone ISD 211LYX
 41
1.1190335573050241
  7
TITLE5
 72
     5
 11
3822.5773896612859062
 21
346.7221498226609242
 31
0.0
  0
TEXT
  5
4439
  8
0
 62
     7
 10
3315.0000000001559783
 20
87.5
 30
0.0
 40
37.5
  1
ISD 211LYX
 41
1.1871345029239759
  7
TITLE3
 72
     5
 11
3677.5000000001559783
 21
87.5
 31
0.0
  0
TEXT
  5
443A
  8
0
 62
     7
 10
2748.9580073525839907
 20
137.5
 30
0.0
 40
37.5
  1
23-01-20
 41
0.6913580246913628
  7
TITLE3
 72
     5
 11
2948.9580073525849002
 21
137.5
 31
0.0
  0
TEXT
  5
443B
  8
0
 62
     7
 10
2583.9412289613469511
 20
138.5390173251261103
 30
0.0
 40
30.0
  1
Date
  7
SIMPLEX
  0
TEXT
  5
443C
  8
0
 62
     7
 10
3710.1389904671559634
 20
161.8791275292639966
 30
0.0
 40
30.0
  1
Revision
 41
0.7812095035934922
  7
SIMPLEX
 72
     5
 11
3841.8285925014879467
 21
161.8791275292639966
 31
0.0
  0
LINE
  5
443D
  8
0
 62
     7
 10
3695.6141874878539966
 20
26.0531160603964089
 30
0.0
 11
3695.6141874878539966
 21
210.3358196356828955
 31
0.0
  0
LINE
  5
443E
  8
0
 62
     7
 10
2551.6894118215900562
 20
433.2994961169263206
 30
0.0
 11
2551.6894118215900562
 21
26.0531160603964089
 31
0.0
  0
LINE
  5
443F
  8
0
 62
     7
 10
3298.6420975165260643
 20
26.0531160603964089
 30
0.0
 11
3298.6420975165260643
 21
210.3358196356828955
 31
0.0
  0
LINE
  5
4440
  8
0
 62
     7
 10
3298.6420975165260643
 20
116.6407490868297003
 30
0.0
 11
2551.6894118215900562
 21
116.6407490868297003
 31
0.0
  0
LINE
  5
4441
  8
0
 62
     7
 10
3854.4693315474569317
 20
210.3358196356828955
 30
0.0
 11
2551.6894118215900562
 21
210.3358196356828955
 31
0.0
  0
LINE
  5
4442
  8
0
 62
     7
 10
2551.6894118215900562
 20
26.0531160603964089
 30
0.0
 11
3854.0974475745210839
 21
26.0531160603964089
 31
0.0
  0
LINE
  5
4443
  8
0
 62
     7
 10
3854.0974475745210839
 20
26.0531160603964089
 30
0.0
 11
3854.0974475745210839
 21
433.2994961169263206
 31
0.0
  0
LINE
  5
4444
  8
0
 62
     7
 10
3854.0974475745210839
 20
433.2994961169263206
 30
0.0
 11
2551.6894118215900562
 21
433.2994961169263206
 31
0.0
  0
TEXT
  5
4445
  8
0
 62
     7
 10
2583.104023879045144
 20
59.9031100816970792
 30
0.0
 40
25.0
  1
Scale
 41
1.3701747965659641
  7
SIMPLEX
 72
     5
 11
2708.7033802309238126
 21
59.9031100816970792
 31
0.0
  0
TEXT
  5
4446
  8
0
 62
     7
 10
3371.0739045011541748
 20
161.1167893833869016
 30
0.0
 40
25.0
  1
Drawing No.
  7
SIMPLEX
 72
     2
 11
3588.9310473582959276
 21
161.1167893833869016
 31
0.0
  0
TEXT
  5
444B
  8
0
 62
     7
 10
2766.9599802419847947
 20
58.6085586802493665
 30
0.0
 40
37.5
  1
1:10
  7
TITLE3
  0
LINE
  5
446A
  8
0
 62
     7
 10
2547.9165898774331254
 20
1904.4836783363700761
 30
0.0
 11
2589.8048230928930025
 21
1924.2363333874141063
 31
0.0
  0
LINE
  5
446B
  8
0
 62
     7
 10
2589.8048230928930025
 20
1924.2363333874141063
 30
0.0
 11
2642.1093390533128513
 21
1924.2363333874141063
 31
0.0
  0
LINE
  5
50D1
  8
0
 10
1099.9065555924069031
 20
2374.7001991520801312
 30
0.0
 11
2501.90655559240804
 21
2374.7001991520801312
 31
0.0
  0
LINE
  5
50D2
  8
0
 10
2501.90655559240804
 20
2374.7001991520801312
 30
0.0
 11
2501.90655559240804
 21
2125.6501991520781303
 31
0.0
  0
LINE
  5
50D3
  8
0
 10
1079.956555592407085
 20
2125.6501991520781303
 30
0.0
 11
2521.8565555924069486
 21
2125.6501991520781303
 31
0.0
  0
LINE
  5
50D6
  8
0
 10
1099.9065555924069031
 20
2374.7001991520801312
 30
0.0
 11
1099.9065555924069031
 21
2125.6501991520781303
 31
0.0
  0
LINE
  5
50D9
  8
0
 10
1145.0565555924060845
 20
2425.6501991520772208
 30
0.0
 11
2434.0565555924081309
 21
2425.6501991520772208
 31
0.0
  0
LINE
  5
50DA
  8
0
 10
1145.0565555924060845
 20
2425.6501991520772208
 30
0.0
 11
1145.0565555924060845
 21
2374.7001991520801312
 31
0.0
  0
LINE
  5
50DB
  8
0
 10
2434.0565555924081309
 20
2425.6501991520772208
 30
0.0
 11
2434.0565555924081309
 21
2374.7001991520801312
 31
0.0
  0
LINE
  5
50DC
  8
0
 10
1079.956555592407085
 20
2384.6501991520799493
 30
0.0
 11
1079.956555592407085
 21
2373.2001991520810407
 31
0.0
  0
LINE
  5
50DD
  8
0
 10
2521.8565555924069486
 20
2384.6501991520799493
 30
0.0
 11
2521.8565555924069486
 21
2373.2001991520810407
 31
0.0
  0
LINE
  5
50DE
  8
0
 10
1079.956555592407085
 20
2384.6501991520799493
 30
0.0
 11
1145.0565555924060845
 21
2384.6501991520799493
 31
0.0
  0
LINE
  5
50DF
  8
0
 10
2434.0565555924081309
 20
2384.6501991520799493
 30
0.0
 11
2521.8565555924069486
 21
2384.6501991520799493
 31
0.0
  0
LINE
  5
513A
  8
0
 10
2549.8565555924078581
 20
2261.2251991520788579
 30
0.0
 11
2549.8565555924078581
 21
2245.2251991520788579
 31
0.0
  0
LINE
  5
513C
  8
0
 10
2521.8565555924069486
 20
2261.2251991520811316
 30
0.0
 11
2549.8565555924078581
 21
2261.2251991520811316
 31
0.0
  0
LINE
  5
513D
  8
0
 10
2521.8565555924069486
 20
2245.2251991520820411
 30
0.0
 11
2549.8565555924078581
 21
2245.2251991520788579
 31
0.0
  0
LINE
  5
513F
  8
0
  6
ACANSTGL
 10
2501.90655559240804
 20
2163.7101991520771662
 30
0.0
 11
2543.8505555924070904
 21
2163.7101991520771662
 31
0.0
  0
LINE
  5
5140
  8
0
  6
ACANSTGL
 10
2501.90655559240804
 20
2143.7101991520771662
 30
0.0
 11
2543.8505555924070904
 21
2143.7101991520780757
 31
0.0
  0
LINE
  5
5141
  8
0
  6
ACANSTGL
 10
2543.8505555924070904
 20
2163.7101991520771662
 30
0.0
 11
2543.8505555924070904
 21
2143.7101991520780757
 31
0.0
  0
LINE
  5
5142
  8
0
 10
2521.8565555924069486
 20
2143.7101991520780757
 30
0.0
 11
2521.8565555924069486
 21
2125.6501991520781303
 31
0.0
  0
LINE
  5
518F
  8
0
 10
2531.4065555924071305
 20
2373.2001991520810407
 30
0.0
 11
2531.4065555924071305
 21
2345.2001991520801312
 31
0.0
  0
LINE
  5
5190
  8
0
 10
2501.90655559240804
 20
2373.2001991520810407
 30
0.0
 11
2531.4065555924071305
 21
2373.2001991520810407
 31
0.0
  0
LINE
  5
5191
  8
0
 10
2501.90655559240804
 20
2345.2001991520801312
 30
0.0
 11
2531.4065555924071305
 21
2345.2001991520801312
 31
0.0
  0
POINT
  5
5193
  8
0
 10
2517.4065555924071305
 20
2359.2001991520810407
 30
0.0
  0
LINE
  5
51E5
  8
0
 10
1099.9065555924069031
 20
2373.2001991520810407
 30
0.0
 11
1070.4065555924069031
 21
2373.2001991520810407
 31
0.0
  0
LINE
  5
51E6
  8
0
 10
1099.9065555924069031
 20
2345.2001991520801312
 30
0.0
 11
1070.4065555924069031
 21
2345.2001991520801312
 31
0.0
  0
LINE
  5
51E7
  8
0
 10
1070.4065555924069031
 20
2373.2001991520810407
 30
0.0
 11
1070.4065555924069031
 21
2345.2001991520801312
 31
0.0
  0
POINT
  5
51E8
  8
0
 10
1084.4065555924069031
 20
2359.2001991520810407
 30
0.0
 50
180.0
  0
LINE
  5
51EE
  8
0
 10
1079.956555592407085
 20
2345.2001991520801312
 30
0.0
 11
1079.956555592407085
 21
2125.6501991520781303
 31
0.0
  0
LINE
  5
5287
  8
0
 10
2444.4065555924030377
 20
2125.6501991520781303
 30
0.0
 11
2444.4065555924071305
 21
1691.6501991520779029
 31
0.0
  0
LINE
  5
5288
  8
0
 10
1152.4065555924069031
 20
1691.6501991520779029
 30
0.0
 11
2444.4065555924030377
 21
1691.6501991520779029
 31
0.0
  0
LINE
  5
5289
  8
0
 10
1152.4065555924069031
 20
2125.6501991520781303
 30
0.0
 11
1152.4065555924069031
 21
1691.6501991520779029
 31
0.0
  0
LINE
  5
528A
  8
0
 10
1249.4065555924050841
 20
1691.6501991520779029
 30
0.0
 11
1249.4065555924050841
 21
1641.6501991520779029
 31
0.0
  0
LINE
  5
528B
  8
0
 10
1249.4065555924050841
 20
1641.6501991520779029
 30
0.0
 11
2347.4065555924048567
 21
1641.6501991520769934
 31
0.0
  0
LINE
  5
528D
  8
0
 10
2347.4065555924048567
 20
1691.6501991520779029
 30
0.0
 11
2347.4065555924048567
 21
1641.6501991520769934
 31
0.0
  0
LINE
  5
528F
  8
0
 10
2444.4065555924071305
 20
1724.1001991520779484
 30
0.0
 11
2478.406555592406221
 21
1724.1001991520779484
 31
0.0
  0
LINE
  5
5290
  8
0
 10
2444.4065555924071305
 20
1696.1001991520779484
 30
0.0
 11
2478.406555592406221
 21
1696.1001991520779484
 31
0.0
  0
LINE
  5
5291
  8
0
 10
2478.406555592406221
 20
1724.1001991520779484
 30
0.0
 11
2478.406555592406221
 21
1696.1001991520779484
 31
0.0
  0
POINT
  5
5292
  8
0
 10
2464.406555592406221
 20
1710.1001991520779484
 30
0.0
  0
LINE
  5
5293
  8
0
 10
1152.4065555924069031
 20
1724.1001991520779484
 30
0.0
 11
1122.4065555924059936
 21
1724.1001991520779484
 31
0.0
  0
LINE
  5
5294
  8
0
 10
1152.4065555924069031
 20
1696.1001991520779484
 30
0.0
 11
1122.4065555924059936
 21
1696.1001991520779484
 31
0.0
  0
LINE
  5
5295
  8
0
 10
1122.4065555924059936
 20
1724.1001991520779484
 30
0.0
 11
1122.4065555924059936
 21
1696.1001991520779484
 31
0.0
  0
POINT
  5
5296
  8
0
 10
1136.4065555924059936
 20
1710.1001991520779484
 30
0.0
 50
180.0
  0
LINE
  5
52E3
  8
0
 10
2520.4065555924039472
 20
2055.6501991520781303
 30
0.0
 11
2520.4065555924039472
 21
1746.6501991520779029
 31
0.0
  0
LINE
  5
52E4
  8
0
 10
2444.4065555924030377
 20
1746.6501991520779029
 30
0.0
 11
2520.4065555924039472
 21
1746.6501991520779029
 31
0.0
  0
LINE
  5
52E5
  8
0
 10
2444.4065555924030377
 20
2055.6501991520781303
 30
0.0
 11
2520.4065555924039472
 21
2055.6501991520781303
 31
0.0
  0
LINE
  5
536B
  8
0
 10
3577.9330082436240446
 20
1044.1623321608719834
 30
0.0
 11
3577.9330082436240446
 21
649.1623321608716424
 31
0.0
  0
LINE
  5
536C
  8
0
 10
3328.8830082436229532
 20
1044.1623321608719834
 30
0.0
 11
3328.8830082436229532
 21
624.1623321608716424
 31
0.0
  0
LINE
  5
536D
  8
0
 10
3587.8830082436238627
 20
624.1623321608716424
 30
0.0
 11
3328.8830082436229532
 21
624.1623321608716424
 31
0.0
  0
LINE
  5
536F
  8
0
 10
3587.8830082436238627
 20
649.1623321608717561
 30
0.0
 11
3587.8830082436238627
 21
624.1623321608716424
 31
0.0
  0
LINE
  5
5370
  8
0
 10
3587.8830082436238627
 20
649.1623321608716424
 30
0.0
 11
3369.6430082436218072
 21
649.1623321608716424
 31
0.0
  0
LINE
  5
5371
  8
0
 10
3628.8830082436238627
 20
1030.1623321608719834
 30
0.0
 11
3628.8830082436238627
 21
671.1623321608717561
 31
0.0
  0
LINE
  5
5372
  8
0
 10
3628.8830082436238627
 20
671.1623321608717561
 30
0.0
 11
3577.9330082436240446
 21
671.1623321608717561
 31
0.0
  0
LINE
  5
5373
  8
0
 10
3628.8830082436238627
 20
1030.1623321608719834
 30
0.0
 11
3577.9330082436208613
 21
1030.1623321608719834
 31
0.0
  0
ARC
  5
5412
  8
0
 10
3356.9430082436228986
 20
649.1623321608716424
 30
0.0
 40
12.6999999999999993
 50
180.0
 51
0.0
  0
LINE
  5
5413
  8
0
 10
3344.2430082436208068
 20
649.1623321608716424
 30
0.0
 11
3328.8830082436229532
 21
649.1623321608716424
 31
0.0
  0
CIRCLE
  5
5415
  8
0
 10
3356.9430082436228986
 20
649.8263321608723118
 30
0.0
 40
10.0
  0
LINE
  5
54B4
  8
0
 10
3583.0330082436230441
 20
1055.1623321608719834
 30
0.0
 11
3583.0330082436230441
 21
959.7623321608722335
 31
0.0
  0
LINE
  5
54B5
  8
0
 10
3555.0330082436212251
 20
1055.1623321608719834
 30
0.0
 11
3555.0330082436212251
 21
959.7623321608722335
 31
0.0
  0
LINE
  5
54B6
  8
0
 10
3555.0330082436212251
 20
959.7623321608722335
 30
0.0
 11
3583.0330082436230441
 21
959.7623321608722335
 31
0.0
  0
LINE
  5
54B7
  8
0
 10
3555.0330082436212251
 20
1055.1623321608719834
 30
0.0
 11
3583.0330082436230441
 21
1055.1623321608719834
 31
0.0
  0
LINE
  5
54B8
  8
0
 10
3555.0330082436212251
 20
1052.6623321608710739
 30
0.0
 11
3583.0330082436230441
 21
1052.6623321608710739
 31
0.0
  0
LINE
  5
54BB
  8
0
 10
3569.0330082436212251
 20
1050.0281385792759465
 30
0.0
 11
3569.0330082436212251
 21
1062.5281385792759465
 31
0.0
  0
LINE
  5
54BD
  8
0
 10
3577.9330082436240446
 20
1044.1623321608719834
 30
0.0
 11
3328.8830082436229532
 21
1044.1623321608719834
 31
0.0
  0
LINE
  5
551A
  8
0
 10
3328.8830082436229532
 20
635.1123321608722563
 30
0.0
 11
2894.8830082436211342
 21
635.1123321608722563
 31
0.0
  0
LINE
  5
551B
  8
0
 10
2894.8830082436211342
 20
1041.8086217760519503
 30
0.0
 11
2894.8830082436211342
 21
635.1123321608722563
 31
0.0
  0
LINE
  5
551C
  8
0
 10
3328.8830082436229532
 20
1041.8086217760519503
 30
0.0
 11
2894.8830082436211342
 21
1041.8086217760519503
 31
0.0
  0
LINE
  5
551D
  8
0
 10
2894.8830082436211342
 20
641.062332160871847
 30
0.0
 11
2844.8830082436211342
 21
641.062332160871847
 31
0.0
  0
LINE
  5
551E
  8
0
 10
2844.8830082436211342
 20
917.062332160871847
 30
0.0
 11
2844.8830082436211342
 21
641.062332160871847
 31
0.0
  0
LINE
  5
551F
  8
0
 10
2894.8830082436211342
 20
917.062332160871847
 30
0.0
 11
2844.8830082436211342
 21
917.062332160871847
 31
0.0
  0
LINE
  5
5520
  8
0
 10
2949.8830082436238627
 20
1028.477332160872038
 30
0.0
 11
2949.8830082436238627
 21
859.4773321608722654
 31
0.0
  0
LINE
  5
5521
  8
0
 10
3258.8830082436238627
 20
1028.477332160872038
 30
0.0
 11
3258.8830082436238627
 21
859.4773321608722654
 31
0.0
  0
LINE
  5
5523
  8
0
 10
3258.8830082436238627
 20
1028.477332160872038
 30
0.0
 11
2949.8830082436238627
 21
1028.477332160872038
 31
0.0
  0
LINE
  5
5525
  8
0
 10
2917.0330082436212251
 20
1055.1623321608719834
 30
0.0
 11
2917.0330082436212251
 21
959.7623321608722335
 31
0.0
  0
LINE
  5
5526
  8
0
 10
2889.0330082436198609
 20
1055.1623321608719834
 30
0.0
 11
2889.0330082436198609
 21
959.7623321608722335
 31
0.0
  0
LINE
  5
5527
  8
0
 10
2889.0330082436198609
 20
959.7623321608722335
 30
0.0
 11
2917.0330082436212251
 21
959.7623321608722335
 31
0.0
  0
LINE
  5
5528
  8
0
 10
2889.0330082436198609
 20
1055.1623321608719834
 30
0.0
 11
2917.0330082436212251
 21
1055.1623321608719834
 31
0.0
  0
LINE
  5
5529
  8
0
 10
2889.0330082436198609
 20
1052.6623321608710739
 30
0.0
 11
2917.0330082436212251
 21
1052.6623321608710739
 31
0.0
  0
LINE
  5
552A
  8
0
 10
2903.0330082436212251
 20
1047.6623321608719834
 30
0.0
 11
2903.0330082436212251
 21
1060.1623321608719834
 31
0.0
  0
TEXT
  5
57D9
  8
0
 10
1665.0277808270309379
 20
1916.3714841780461029
 30
0.0
 40
37.5
  1
ISD 211LYX
  7
TITLE3
  0
TEXT
  5
57DA
  8
0
 10
2974.7393413308409436
 20
920.7107492612652777
 30
0.0
 40
30.0
  1
ISD 211LYX
  7
TITLE3
  0
LINE
  5
57DB
  8
0
 62
     7
 10
1145.0565555924060845
 20
2445.6501991520781303
 30
0.0
 11
1145.0565555924060845
 21
2511.2800230429370458
 31
0.0
  0
LINE
  5
57DC
  8
0
 62
     7
 10
1175.056555592406994
 20
2491.2800230429361363
 30
0.0
 11
1753.536098715964954
 21
2491.2800230429361363
 31
0.0
  0
SOLID
  5
57DD
  8
0
 62
     7
 10
1175.056555592406994
 20
2496.2800230429379553
 30
0.0
 11
1175.056555592406994
 21
2486.2800230429370458
 31
0.0
 12
1145.0565555924060845
 22
2491.2800230429361363
 32
0.0
 13
1145.0565555924060845
 23
2491.2800230429361363
 33
0.0
  0
LINE
  5
57E1
  8
0
 62
     7
 10
2434.0565555924081309
 20
2445.6501991520781303
 30
0.0
 11
2434.0565555924081309
 21
2511.2800230429370458
 31
0.0
  0
LINE
  5
57E2
  8
0
 62
     7
 10
2404.0565555924072214
 20
2491.2800230429361363
 30
0.0
 11
1857.2011075614830133
 21
2491.2800230429361363
 31
0.0
  0
SOLID
  5
57E3
  8
0
 62
     7
 10
2404.0565555924072214
 20
2496.2800230429379553
 30
0.0
 11
2404.0565555924072214
 21
2486.2800230429370458
 31
0.0
 12
2434.0565555924081309
 22
2491.2800230429361363
 32
0.0
 13
2434.0565555924081309
 23
2491.2800230429361363
 33
0.0
  0
TEXT
  5
57EE
  8
0
 62
     7
 10
1759.7869226616539891
 20
2479.1800230429380463
 30
0.0
 40
25.0
  1
1289
  0
LINE
  5
57EF
  8
0
 62
     7
 10
1249.4065555924050841
 20
1621.6501991520769934
 30
0.0
 11
1249.4065555924050841
 21
1553.0419384885640284
 31
0.0
  0
LINE
  5
57F0
  8
0
 62
     7
 10
1279.4065555924030377
 20
1573.0419384885649379
 30
0.0
 11
1737.9610868364029557
 21
1573.0419384885649379
 31
0.0
  0
SOLID
  5
57F1
  8
0
 62
     7
 10
1279.4065555924030377
 20
1578.0419384885649379
 30
0.0
 11
1279.4065555924030377
 21
1568.0419384885649379
 31
0.0
 12
1249.4065555924050841
 22
1573.0419384885649379
 32
0.0
 13
1249.4065555924050841
 23
1573.0419384885649379
 33
0.0
  0
LINE
  5
57F3
  8
0
 62
     7
 10
2347.4065555924048567
 20
1621.6501991520769934
 30
0.0
 11
2347.4065555924048567
 21
1553.0419384885640284
 31
0.0
  0
LINE
  5
57F4
  8
0
 62
     7
 10
2317.4065555924030377
 20
1573.0419384885649379
 30
0.0
 11
1829.6277535030699255
 21
1573.0419384885649379
 31
0.0
  0
SOLID
  5
57F5
  8
0
 62
     7
 10
2317.4065555924030377
 20
1578.0419384885649379
 30
0.0
 11
2317.4065555924030377
 21
1568.0419384885649379
 31
0.0
 12
2347.4065555924048567
 22
1573.0419384885649379
 32
0.0
 13
2347.4065555924048567
 23
1573.0419384885649379
 33
0.0
  0
TEXT
  5
57F9
  8
0
 62
     7
 10
1744.2119107820919908
 20
1560.3419384885648924
 30
0.0
 40
25.0
  1
1098
  0
LINE
  5
57FA
  8
0
 62
     7
 10
2943.7955791998638233
 20
742.8314191751450153
 30
0.0
 11
2911.6223465726748145
 21
771.364021160530001
 31
0.0
  0
LINE
  5
57FB
  8
0
 62
     7
 10
2966.1493800388761883
 20
781.4139951380564071
 30
0.0
 11
2966.1493800388761883
 21
761.3140471830009801
 31
0.0
  0
LINE
  5
57FC
  8
0
 62
     7
 10
2966.1493800388761883
 20
761.3140471830009801
 30
0.0
 11
2943.7955791998638233
 21
761.3140471830009801
 31
0.0
  0
LINE
  5
57FD
  8
0
 62
     7
 10
2943.7955791998638233
 20
761.3140471830009801
 30
0.0
 11
2943.7955791998638233
 21
742.8314191751450153
 31
0.0
  0
LINE
  5
57FE
  8
0
 62
     7
 10
2943.7955791998638233
 20
799.8966231459129403
 30
0.0
 11
2911.6223465726748145
 21
771.364021160530001
 31
0.0
  0
LINE
  5
57FF
  8
0
 62
     7
 10
2966.1493800388761883
 20
781.4139951380564071
 30
0.0
 11
2943.7955791998638233
 21
781.4139951380564071
 31
0.0
  0
LINE
  5
5800
  8
0
 62
     7
 10
2943.7955791998638233
 20
781.4139951380564071
 30
0.0
 11
2943.7955791998638233
 21
799.8966231459129403
 31
0.0
  0
LINE
  5
5801
  8
0
 62
     7
 10
3543.4164263391307941
 20
819.9365595017220585
 30
0.0
 11
3511.243193711945878
 21
848.46916148710784
 31
0.0
  0
LINE
  5
5802
  8
0
 62
     7
 10
3560.8822271781441486
 20
858.5191354646337913
 30
0.0
 11
3560.8822271781441486
 21
838.4191875095782507
 31
0.0
  0
LINE
  5
5803
  8
0
 62
     7
 10
3560.8822271781441486
 20
838.4191875095782507
 30
0.0
 11
3543.4164263391307941
 21
838.4191875095782507
 31
0.0
  0
LINE
  5
5804
  8
0
 62
     7
 10
3543.4164263391307941
 20
838.4191875095782507
 30
0.0
 11
3543.4164263391307941
 21
819.9365595017220585
 31
0.0
  0
LINE
  5
5805
  8
0
 62
     7
 10
3543.4164263391307941
 20
877.001763472490552
 30
0.0
 11
3511.243193711945878
 21
848.46916148710784
 31
0.0
  0
LINE
  5
5806
  8
0
 62
     7
 10
3560.8822271781441486
 20
858.5191354646337913
 30
0.0
 11
3543.4164263391307941
 21
858.5191354646337913
 31
0.0
  0
LINE
  5
5807
  8
0
 62
     7
 10
3543.4164263391307941
 20
858.5191354646337913
 30
0.0
 11
3543.4164263391307941
 21
877.001763472490552
 31
0.0
  0
LINE
  5
5808
  8
0
 62
     7
 10
2824.8830082436202247
 20
917.062332160871847
 30
0.0
 11
2761.3449207444477906
 21
917.062332160871847
 31
0.0
  0
LINE
  5
5809
  8
0
 62
     7
 10
2781.3449207444491549
 20
887.062332160871847
 30
0.0
 11
2781.3449207444450622
 21
812.6591275856173979
 31
0.0
  0
SOLID
  5
580A
  8
0
 62
     7
 10
2776.3449207444477906
 20
887.062332160871847
 30
0.0
 11
2786.3449207444477906
 21
887.062332160871847
 31
0.0
 12
2781.3449207444491549
 22
917.062332160871847
 32
0.0
 13
2781.3449207444491549
 23
917.062332160871847
 33
0.0
  0
TEXT
  5
580B
  8
0
 62
     7
 10
2793.8449207444477906
 20
739.7432848646401453
 30
0.0
 40
25.0
  1
276
 50
90.0
  0
LINE
  5
580C
  8
0
 62
     7
 10
2824.8830082436202247
 20
641.062332160871847
 30
0.0
 11
2761.3449207444477906
 21
641.062332160871847
 31
0.0
  0
LINE
  5
580D
  8
0
 62
     7
 10
2781.3449207444468811
 20
671.0623321608713923
 30
0.0
 11
2781.3449207444468811
 21
733.4924609189511102
 31
0.0
  0
SOLID
  5
580E
  8
0
 62
     7
 10
2776.3449207444477906
 20
671.0623321608713923
 30
0.0
 11
2786.3449207444477906
 21
671.0623321608713923
 31
0.0
 12
2781.3449207444468811
 22
641.062332160871847
 32
0.0
 13
2781.3449207444468811
 23
641.062332160871847
 33
0.0
  0
LINE
  5
585C
  8
0
 62
     7
 10
3648.8830082436211342
 20
1030.1623321608719834
 30
0.0
 11
3715.4888350802489185
 21
1030.1623321608719834
 31
0.0
  0
LINE
  5
585D
  8
0
 62
     7
 10
3695.4888350802539208
 20
1000.1623321608719834
 30
0.0
 11
3695.4888350802530113
 21
885.7996098775256542
 31
0.0
  0
SOLID
  5
585E
  8
0
 62
     7
 10
3690.4888350802489185
 20
1000.1623321608719834
 30
0.0
 11
3700.4888350802548302
 21
1000.1623321608719834
 31
0.0
 12
3695.4888350802539208
 22
1030.1623321608719834
 32
0.0
 13
3695.4888350802539208
 23
1030.1623321608719834
 33
0.0
  0
TEXT
  5
585F
  8
0
 62
     7
 10
3707.9888350802521018
 20
812.8837671565473784
 30
0.0
 40
25.0
  1
359
 50
90.0
  0
LINE
  5
5860
  8
0
 62
     7
 10
3648.8830082436238627
 20
671.1623321608730066
 30
0.0
 11
3715.4888350802489185
 21
671.1623321608730066
 31
0.0
  0
LINE
  5
5861
  8
0
 62
     7
 10
3695.4888350802539208
 20
701.1623321608728929
 30
0.0
 11
3695.4888350802539208
 21
806.6329432108583433
 31
0.0
  0
SOLID
  5
5862
  8
0
 62
     7
 10
3690.4888350802489185
 20
701.1623321608728929
 30
0.0
 11
3700.4888350802548302
 21
701.1623321608728929
 31
0.0
 12
3695.4888350802539208
 22
671.1623321608730066
 32
0.0
 13
3695.4888350802539208
 23
671.1623321608730066
 33
0.0
  0
LINE
  5
58B4
  8
0
 62
     7
 10
3596.4330082436208613
 20
1055.1623321608719834
 30
0.0
 11
3780.0100839310061929
 21
1055.1623321608719834
 31
0.0
  0
LINE
  5
58B5
  8
0
 62
     7
 10
3760.0100839310030096
 20
1025.1623321608719834
 30
0.0
 11
3760.0100839310030096
 21
926.088410443813018
 31
0.0
  0
SOLID
  5
58B6
  8
0
 62
     7
 10
3755.0100839310039191
 20
1025.1623321608719834
 30
0.0
 11
3765.0100839310061929
 21
1025.1623321608719834
 31
0.0
 12
3760.0100839310071024
 22
1055.1623321608719834
 32
0.0
 13
3760.0100839310071024
 23
1055.1623321608719834
 33
0.0
  0
LINE
  5
58B8
  8
0
 62
     7
 10
3599.8330082436209523
 20
624.1623321608716424
 30
0.0
 11
3780.0100839310061929
 21
624.1623321608716424
 31
0.0
  0
LINE
  5
58B9
  8
0
 62
     7
 10
3760.0100839310071024
 20
654.1623321608717561
 30
0.0
 11
3760.0100839310071024
 21
746.921743777146844
 31
0.0
  0
SOLID
  5
58BA
  8
0
 62
     7
 10
3755.0100839310039191
 20
654.1623321608717561
 30
0.0
 11
3765.0100839310071024
 21
654.1623321608717561
 31
0.0
 12
3760.0100839310071024
 22
624.1623321608716424
 32
0.0
 13
3760.0100839310071024
 23
624.1623321608716424
 33
0.0
  0
TEXT
  5
58BB
  8
0
 62
     7
 10
3772.5100839310048286
 20
753.172567722835538
 30
0.0
 40
25.0
  1
431 O/A
 50
90.0
  0
LINE
  5
5909
  8
0
  6
PHANTOM
 62
     7
 10
3021.8565555924010368
 20
1641.6501991520760839
 30
0.0
 11
3021.8565555924051296
 21
2384.6501991520799493
 31
0.0
  0
LINE
  5
590A
  8
0
  6
PHANTOM
 62
     7
 10
3021.8565555924051296
 20
2384.6501991520799493
 30
0.0
 11
2535.4355607797961056
 21
2384.6501991520799493
 31
0.0
  0
TEXT
  5
590B
  8
0
 62
     7
 10
3063.1463062346010702
 20
1812.981897091276096
 30
0.0
 40
25.0
  1
500 mm CLEARENCE
 50
90.0
  7
TITLE3
  0
LINE
  5
590C
  8
0
  6
PHANTOM
 62
     7
 10
2514.406555592406221
 20
1641.6501991520760839
 30
0.0
 11
3021.8565555924010368
 21
1641.6501991520760839
 31
0.0
  0
LINE
  5
5967
  8
0
 62
     7
 10
2844.8830082436211342
 20
621.0623321608713923
 30
0.0
 11
2844.8830082436211342
 21
516.2506983474128219
 31
0.0
  0
LINE
  5
5968
  8
0
 62
     7
 10
2874.8830082436202247
 20
536.2506983474129356
 30
0.0
 11
3160.5805520184708257
 21
536.250698347413163
 31
0.0
  0
SOLID
  5
5969
  8
0
 62
     7
 10
2874.8830082436202247
 20
541.2506983474128219
 30
0.0
 11
2874.8830082436202247
 21
531.2506983474128219
 31
0.0
 12
2844.8830082436211342
 22
536.2506983474129356
 32
0.0
 13
2844.8830082436211342
 23
536.2506983474129356
 33
0.0
  0
LINE
  5
596A
  8
0
 62
     7
 10
3628.8830082436238627
 20
650.3263321608723118
 30
0.0
 11
3628.8830082436238627
 21
516.2506983474129356
 31
0.0
  0
LINE
  5
596B
  8
0
 62
     7
 10
3598.8830082436238627
 20
536.2506983474129356
 30
0.0
 11
3339.7472186851359766
 21
536.250698347413163
 31
0.0
  0
SOLID
  5
596C
  8
0
 62
     7
 10
3598.8830082436238627
 20
541.2506983474129356
 30
0.0
 11
3598.8830082436238627
 21
531.2506983474129356
 31
0.0
 12
3628.8830082436238627
 22
536.2506983474129356
 32
0.0
 13
3628.8830082436238627
 23
536.2506983474129356
 33
0.0
  0
TEXT
  5
596E
  8
0
 62
     7
 10
3166.8313759641591787
 20
523.7506983474120261
 30
0.0
 40
25.0
  1
784 O/A
  0
LINE
  5
59BF
  8
0
 62
     7
 10
2464.406555592406221
 20
1690.1001991520779484
 30
0.0
 11
2464.406555592406221
 21
1508.6518225811419143
 31
0.0
  0
LINE
  5
59C0
  8
0
 62
     7
 10
2436.3565555924051296
 20
1528.6518225811430511
 30
0.0
 11
1911.448294991811963
 21
1528.6518225811439606
 31
0.0
  0
SOLID
  5
59C1
  8
0
 62
     7
 10
2436.3565555924051296
 20
1533.6518225811430511
 30
0.0
 11
2436.3565555924051296
 21
1523.6518225811430511
 31
0.0
 12
2464.406555592406221
 22
1528.6518225811430511
 32
0.0
 13
2464.406555592406221
 23
1528.6518225811430511
 33
0.0
  0
LINE
  5
59C2
  8
0
 62
     7
 10
1166.4065555924059936
 20
1528.6518225811439606
 30
0.0
 11
1669.6149616584780233
 21
1528.6518225811439606
 31
0.0
  0
SOLID
  5
59C3
  8
0
 62
     7
 10
1166.4065555924059936
 20
1533.6518225811430511
 30
0.0
 11
1166.4065555924059936
 21
1523.6518225811430511
 31
0.0
 12
1136.4065555924059936
 22
1528.6518225811439606
 32
0.0
 13
1136.4065555924059936
 23
1528.6518225811439606
 33
0.0
  0
TEXT
  5
59C4
  8
0
 62
     7
 10
1671.8657856041659215
 20
1515.9518225811430057
 30
0.0
 40
25.0
  1
1328 CTRS
  0
LINE
  5
5A12
  8
0
 62
     7
 10
2903.0330082436212251
 20
1071.8623321608720289
 30
0.0
 11
2903.0330082436212251
 21
1137.4921560517320813
 31
0.0
  0
LINE
  5
5A13
  8
0
 62
     7
 10
2933.0330082436212251
 20
1117.492156051730035
 30
0.0
 11
3126.5653185626088089
 21
1117.492156051730035
 31
0.0
  0
SOLID
  5
5A14
  8
0
 62
     7
 10
2933.0330082436212251
 20
1122.4921560517320813
 30
0.0
 11
2933.0330082436212251
 21
1112.4921560517320813
 31
0.0
 12
2903.0330082436212251
 22
1117.492156051730035
 32
0.0
 13
2903.0330082436212251
 23
1117.492156051730035
 33
0.0
  0
LINE
  5
5A15
  8
0
 62
     7
 10
3569.0330082436212251
 20
1071.8623321608720289
 30
0.0
 11
3569.0330082436212251
 21
1137.4921560517320813
 31
0.0
  0
LINE
  5
5A16
  8
0
 62
     7
 10
3539.0330082436230441
 20
1117.492156051730035
 30
0.0
 11
3330.9506214272169018
 21
1117.492156051730035
 31
0.0
  0
SOLID
  5
5A17
  8
0
 62
     7
 10
3539.0330082436230441
 20
1122.4921560517320813
 30
0.0
 11
3539.0330082436230441
 21
1112.4921560517320813
 31
0.0
 12
3569.0330082436212251
 22
1117.492156051730035
 32
0.0
 13
3569.0330082436212251
 23
1117.492156051730035
 33
0.0
  0
TEXT
  5
5A18
  8
0
 62
     7
 10
3132.8161425082980713
 20
1105.3921560517319449
 30
0.0
 40
25.0
  1
666 CTRS
  0
LINE
  5
5A67
  8
0
 62
     7
 10
1084.4065555924069031
 20
2379.2001991520810407
 30
0.0
 11
1084.4065555924069031
 21
2588.959510282571955
 31
0.0
  0
TEXT
  5
5A6A
  8
0
 62
     7
 10
1697.1544311171819572
 20
2540.8594809006181094
 30
0.0
 40
25.0
  1
1433 CTRS
  0
LINE
  5
5A6C
  8
0
 62
     7
 10
2517.4065555924071305
 20
2379.2001991520810407
 30
0.0
 11
2517.4065555924071305
 21
2588.959510282571955
 31
0.0
  0
LINE
  5
5A6D
  8
0
 62
     7
 10
2487.406555592406221
 20
2552.9594809006180185
 30
0.0
 11
1912.1149210384251091
 21
2552.9594809006180185
 31
0.0
  0
SOLID
  5
5A6E
  8
0
 62
     7
 10
2487.406555592406221
 20
2557.959480900618928
 30
0.0
 11
2487.406555592406221
 21
2547.9594809006180185
 31
0.0
 12
2517.4065555924071305
 22
2552.9594809006180185
 32
0.0
 13
2517.4065555924071305
 23
2552.9594809006180185
 33
0.0
  0
LINE
  5
5D99
  8
0
 62
     7
 10
1114.4065555924059936
 20
2552.9594809006180185
 30
0.0
 11
1690.9036071714929221
 21
2552.9594809006180185
 31
0.0
  0
SOLID
  5
5D9A
  8
0
 62
     7
 10
1114.4065555924059936
 20
2557.959480900618928
 30
0.0
 11
1114.4065555924059936
 21
2547.9594809006180185
 31
0.0
 12
1084.4065555924069031
 22
2552.9594809006180185
 32
0.0
 13
1084.4065555924069031
 23
2552.9594809006180185
 33
0.0
  0
LINE
  5
5D9B
  8
0
 10
2521.8565555924069486
 20
624.1623321608717561
 30
0.0
 11
1079.956555592407085
 21
624.1623321608717561
 31
0.0
  0
LINE
  5
5D9E
  8
0
 10
1079.956555592407085
 20
649.1623321608717561
 30
0.0
 11
1079.956555592407085
 21
624.1623321608717561
 31
0.0
  0
LINE
  5
5D9F
  8
0
 10
2521.8565555924069486
 20
649.1623321608717561
 30
0.0
 11
2521.8565555924069486
 21
624.1623321608717561
 31
0.0
  0
LINE
  5
5DA0
  8
0
 10
1099.9065555924069031
 20
1055.1623321608719834
 30
0.0
 11
1099.9065555924069031
 21
624.1623321608717561
 31
0.0
  0
LINE
  5
5DA1
  8
0
 10
1099.9065555924069031
 20
649.1623321608717561
 30
0.0
 11
1079.956555592407085
 21
649.1623321608717561
 31
0.0
  0
LINE
  5
5DA2
  8
0
 10
2501.90655559240804
 20
677.3923321608718879
 30
0.0
 11
2568.9565555924082219
 21
677.3923321608718879
 31
0.0
  0
LINE
  5
5DA3
  8
0
 10
2568.9565555924082219
 20
676.3923321608724564
 30
0.0
 11
2584.9565555924082219
 21
676.3923321608724564
 31
0.0
  0
LINE
  5
5DA4
  8
0
 10
2501.90655559240804
 20
699.392332160872229
 30
0.0
 11
2568.9565555924082219
 21
699.392332160872229
 31
0.0
  0
LINE
  5
5DA5
  8
0
 10
2568.9565555924082219
 20
700.3923321608715469
 30
0.0
 11
2584.9565555924082219
 21
700.3923321608715469
 31
0.0
  0
LINE
  5
5DA6
  8
0
 10
2584.9565555924082219
 20
700.3923321608715469
 30
0.0
 11
2584.9565555924082219
 21
676.3923321608724564
 31
0.0
  0
LINE
  5
5DA7
  8
0
 10
2568.9565555924082219
 20
700.3923321608715469
 30
0.0
 11
2568.9565555924082219
 21
676.3923321608724564
 31
0.0
  0
LINE
  5
5DA8
  8
0
 10
2501.90655559240804
 20
759.8843665104870979
 30
0.0
 11
2572.2565555924070395
 21
759.8843665104870979
 31
0.0
  0
LINE
  5
5DA9
  8
0
 10
2572.2565555924070395
 20
758.8843665104864158
 30
0.0
 11
2584.9565555924082219
 21
758.8843665104864158
 31
0.0
  0
LINE
  5
5DAA
  8
0
 10
2501.90655559240804
 20
772.5843665104866886
 30
0.0
 11
2572.2565555924070395
 21
772.5843665104870297
 31
0.0
  0
LINE
  5
5DAB
  8
0
 10
2572.2565555924070395
 20
773.5843665104870297
 30
0.0
 11
2584.9565555924082219
 21
773.5843665104870297
 31
0.0
  0
LINE
  5
5DAD
  8
0
 10
2584.9565555924082219
 20
773.5843665104870297
 30
0.0
 11
2584.9565555924082219
 21
758.8843665104864158
 31
0.0
  0
LINE
  5
5DAE
  8
0
 10
2521.8565555924069486
 20
624.9983321608724509
 30
0.0
 11
2549.8565555924078581
 21
624.9983321608719962
 31
0.0
  0
LINE
  5
5DAF
  8
0
 10
2543.8505555924070904
 20
640.9983321608724509
 30
0.0
 11
2549.8565555924078581
 21
640.9983321608724509
 31
0.0
  0
LINE
  5
5DB0
  8
0
 10
2549.8565555924078581
 20
640.9983321608719962
 30
0.0
 11
2549.8565555924078581
 21
624.9983321608717688
 31
0.0
  0
LINE
  5
5DB1
  8
0
 10
2521.8565555924069486
 20
639.1623321608719834
 30
0.0
 11
2543.8505555924070904
 21
639.1623321608719834
 31
0.0
  0
LINE
  5
5DB2
  8
0
 10
2501.90655559240804
 20
659.1623321608719834
 30
0.0
 11
2543.8505555924070904
 21
659.1623321608719834
 31
0.0
  0
LINE
  5
5DB3
  8
0
 10
2543.8505555924070904
 20
659.1623321608719834
 30
0.0
 11
2543.8505555924070904
 21
639.1623321608719834
 31
0.0
  0
LINE
  5
5DB5
  8
0
 10
2501.90655559240804
 20
1055.1623321608719834
 30
0.0
 11
2531.4065555924071305
 21
1055.1623321608719834
 31
0.0
  0
LINE
  5
5DB6
  8
0
 10
2504.4065555924071305
 20
1052.6623321608710739
 30
0.0
 11
2531.4065555924071305
 21
1052.6623321608710739
 31
0.0
  0
LINE
  5
5DB7
  8
0
 10
2531.4065555924071305
 20
1055.1623321608719834
 30
0.0
 11
2531.4065555924071305
 21
1052.6623321608710739
 31
0.0
  0
LINE
  5
5DB8
  8
0
 10
2517.4065555924071305
 20
1060.1623321608719834
 30
0.0
 11
2517.4065555924071305
 21
1047.6623321608719834
 31
0.0
  0
LINE
  5
5DB9
  8
0
 10
1097.40655559240804
 20
1052.6623321608710739
 30
0.0
 11
1097.40655559240804
 21
959.7623321608722335
 31
0.0
  0
LINE
  5
5DBA
  8
0
 10
1099.9065555924069031
 20
1055.1623321608719834
 30
0.0
 11
1070.4065555924069031
 21
1055.1623321608719834
 31
0.0
  0
LINE
  5
5DBB
  8
0
 10
1097.40655559240804
 20
1052.6623321608710739
 30
0.0
 11
1070.4065555924069031
 21
1052.6623321608710739
 31
0.0
  0
LINE
  5
5DBD
  8
0
 10
1070.4065555924069031
 20
1055.1623321608719834
 30
0.0
 11
1070.4065555924069031
 21
1052.6623321608710739
 31
0.0
  0
LINE
  5
5DBE
  8
0
 10
1084.4065555924069031
 20
1060.1623321608719834
 30
0.0
 11
1084.4065555924069031
 21
1047.6623321608719834
 31
0.0
  0
LINE
  5
5DBF
  8
0
 10
2444.4065555924039472
 20
1033.212332160871938
 30
0.0
 11
2444.40655559240804
 21
635.1123321608722563
 31
0.0
  0
LINE
  5
5DC0
  8
0
 10
1152.4065555924069031
 20
1041.8086217760519503
 30
0.0
 11
1152.4065555924069031
 21
635.1123321608722563
 31
0.0
  0
LINE
  5
5DC1
  8
0
 10
2444.40655559240804
 20
635.1123321608722563
 30
0.0
 11
1152.4065555924069031
 21
635.1123321608722563
 31
0.0
  0
LINE
  5
5DC2
  8
0
 10
2444.4065555924039472
 20
1041.8086217760519503
 30
0.0
 11
1152.4065555924069031
 21
1041.8086217760519503
 31
0.0
  0
LINE
  5
5DC3
  8
0
 10
2347.4065555924048567
 20
641.0623321608720744
 30
0.0
 11
1249.4065555924050841
 21
641.062332160871847
 31
0.0
  0
LINE
  5
5DC4
  8
0
 10
2347.4065555924048567
 20
903.0553321608723536
 30
0.0
 11
1249.4065555924050841
 21
903.0553321608723536
 31
0.0
  0
LINE
  5
5DC5
  8
0
 10
1249.4065555924050841
 20
903.0553321608723536
 30
0.0
 11
1249.4065555924050841
 21
641.062332160871847
 31
0.0
  0
LINE
  5
5DC6
  8
0
 10
2347.4065555924048567
 20
903.0553321608723536
 30
0.0
 11
2347.4065555924048567
 21
641.0623321608720744
 31
0.0
  0
LINE
  5
5DC8
  8
0
 10
2520.4065555924030377
 20
1028.477332160872038
 30
0.0
 11
2444.4065555924039472
 21
1028.477332160872038
 31
0.0
  0
LINE
  5
5DCB
  8
0
 10
1152.4065555924069031
 20
1055.1623321608719834
 30
0.0
 11
1152.4065555924069031
 21
959.7623321608722335
 31
0.0
  0
LINE
  5
5DD3
  8
0
 10
2444.4065555924039472
 20
1055.1623321608719834
 30
0.0
 11
2444.4065555924039472
 21
959.7623321608722335
 31
0.0
  0
LINE
  5
5DD4
  8
0
 10
2446.9065555924071305
 20
1052.6623321608710739
 30
0.0
 11
2446.9065555924071305
 21
959.7623321608722335
 31
0.0
  0
LINE
  5
5DD5
  8
0
 10
2444.4065555924039472
 20
1055.1623321608719834
 30
0.0
 11
2478.406555592406221
 21
1055.1623321608719834
 31
0.0
  0
LINE
  5
5DD6
  8
0
 10
2446.9065555924071305
 20
1052.6623321608710739
 30
0.0
 11
2478.406555592406221
 21
1052.6623321608710739
 31
0.0
  0
LINE
  5
5DD7
  8
0
 10
2478.406555592406221
 20
1055.1623321608719834
 30
0.0
 11
2478.406555592406221
 21
1052.6623321608710739
 31
0.0
  0
LINE
  5
5DD8
  8
0
 10
2444.4065555924039472
 20
959.7623321608722335
 30
0.0
 11
2446.9065555924071305
 21
959.7623321608722335
 31
0.0
  0
LINE
  5
5DD9
  8
0
 10
2464.406555592406221
 20
1060.1623321608719834
 30
0.0
 11
2464.406555592406221
 21
1047.6623321608719834
 31
0.0
  0
LINE
  5
5DDA
  8
0
 10
2501.90655559240804
 20
1044.1623321608719834
 30
0.0
 11
1099.9065555924069031
 21
1044.1623321608719834
 31
0.0
  0
LINE
  5
5DE8
  8
0
  6
HIDDEN
 62
     7
 10
2444.4065555924039472
 20
958.7623321608704146
 30
0.0
 11
2444.4065555924039472
 21
1006.2623321608699598
 31
0.0
  0
LINE
  5
5E06
  8
0
  6
HIDDEN
 62
     7
 10
1152.4065555924069031
 20
958.7623321608704146
 30
0.0
 11
1152.4065555924069031
 21
1006.2623321608699598
 31
0.0
  0
TEXT
  5
5E17
  8
0
 10
1645.2223048762618873
 20
758.7444947434516962
 30
0.0
 40
37.5
  1
ISD 211LYX
  7
TITLE3
  0
LINE
  5
5E18
  8
0
 62
     7
 10
1079.956555592407085
 20
604.1623321608718697
 30
0.0
 11
1079.956555592407085
 21
516.2506983474129356
 31
0.0
  0
LINE
  5
5E19
  8
0
 62
     7
 10
1109.956555592407085
 20
536.250698347413163
 30
0.0
 11
1770.0251037661869304
 21
536.2506983474132767
 31
0.0
  0
SOLID
  5
5E1A
  8
0
 62
     7
 10
1109.956555592407085
 20
541.2506983474129356
 30
0.0
 11
1109.956555592407085
 21
531.2506983474129356
 31
0.0
 12
1079.956555592407085
 22
536.250698347413163
 32
0.0
 13
1079.956555592407085
 23
536.250698347413163
 33
0.0
  0
LINE
  5
5E1B
  8
0
 62
     7
 10
2584.9565555924082219
 20
656.8372906806257561
 30
0.0
 11
2584.9565555924082219
 21
516.2506983474129356
 31
0.0
  0
LINE
  5
5E1C
  8
0
 62
     7
 10
2554.9565555924082219
 20
536.250698347413163
 30
0.0
 11
1964.772506377774107
 21
536.2506983474132767
 31
0.0
  0
SOLID
  5
5E1D
  8
0
 62
     7
 10
2554.9565555924082219
 20
541.2506983474129356
 30
0.0
 11
2554.9565555924082219
 21
531.2506983474129356
 31
0.0
 12
2584.9565555924082219
 22
536.250698347413163
 32
0.0
 13
2584.9565555924082219
 23
536.250698347413163
 33
0.0
  0
TEXT
  5
5E1E
  8
0
 62
     7
 10
1776.2759277118759655
 20
523.7506983474122535
 30
0.0
 40
25.0
  1
1505 O/A
  0
LINE
  5
5E36
  8
0
 10
2521.8565555924069486
 20
649.1623321608717561
 30
0.0
 11
2453.40655559240804
 21
649.1623321608717561
 31
0.0
  0
LINE
  5
5E3A
  8
0
  6
HIDDEN
 62
     7
 10
2501.9065555924048567
 20
958.7623321608704146
 30
0.0
 11
2501.9065555924048567
 21
1006.2623321608699598
 31
0.0
  0
LINE
  5
5F0B
  8
0
 62
     7
 10
1052.9065555924050841
 20
956.2623321608701872
 30
0.0
 11
1052.9065555924050841
 21
1219.9668517125180642
 31
0.0
  0
LINE
  5
5F0C
  8
0
 62
     7
 10
1082.9065555924050841
 20
1199.9668517125180642
 30
0.0
 11
1465.6879872480928952
 21
1199.9668517125180642
 31
0.0
  0
SOLID
  5
5F0D
  8
0
 62
     7
 10
1082.9065555924050841
 20
1204.9668517125180642
 30
0.0
 11
1082.9065555924050841
 21
1194.9668517125180642
 31
0.0
 12
1052.9065555924050841
 22
1199.9668517125180642
 32
0.0
 13
1052.9065555924050841
 23
1199.9668517125180642
 33
0.0
  0
LINE
  5
5F0F
  8
0
 62
     7
 10
2518.9065555924039472
 20
1199.9668517125180642
 30
0.0
 11
2210.1858726508448854
 21
1199.9668517125201106
 31
0.0
  0
SOLID
  5
5F10
  8
0
 62
     7
 10
2518.9065555924039472
 20
1204.9668517125180642
 30
0.0
 11
2518.9065555924039472
 21
1194.9668517125180642
 31
0.0
 12
2548.9065555924030377
 22
1199.9668517125180642
 32
0.0
 13
2548.9065555924030377
 23
1199.9668517125180642
 33
0.0
  0
TEXT
  5
5F11
  8
0
 62
     7
 10
1471.9388111937819303
 20
1187.4668517125180642
 30
0.0
 40
25.0
  1
1496 (SPRING MTG CTRS - OPTION)
  0
LINE
  5
5F12
  8
0
 62
     7
 10
1104.1465555924060027
 20
956.2623321608695051
 30
0.0
 11
1104.1465555924060027
 21
1160.8150777158609799
 31
0.0
  0
LINE
  5
5F13
  8
0
 62
     7
 10
1134.1465555924039563
 20
1140.8150777158609799
 30
0.0
 11
1451.5262078795890375
 21
1140.8150777158618894
 31
0.0
  0
SOLID
  5
5F14
  8
0
 62
     7
 10
1134.1465555924039563
 20
1145.8150777158609799
 30
0.0
 11
1134.1465555924039563
 21
1135.8150777158609799
 31
0.0
 12
1104.1465555924060027
 22
1140.8150777158618894
 32
0.0
 13
1104.1465555924060027
 23
1140.8150777158618894
 33
0.0
  0
TEXT
  5
5F15
  8
0
 62
     7
 10
1459.2870318252780635
 20
1128.3150777158609799
 30
0.0
 40
25.0
  1
1391 (SPRING MTG CTRS - OPTION)
  0
LINE
  5
5F16
  8
0
 62
     7
 10
2495.4038095902537862
 20
956.2623321608690503
 30
0.0
 11
2495.4038095902537862
 21
1160.8150777158600704
 31
0.0
  0
LINE
  5
5F17
  8
0
 62
     7
 10
2465.4038095902560599
 20
1140.8150777158618894
 30
0.0
 11
2185.5693234609620959
 21
1140.8150777158618894
 31
0.0
  0
SOLID
  5
5F18
  8
0
 62
     7
 10
2465.4038095902560599
 20
1145.8150777158600704
 30
0.0
 11
2465.4038095902560599
 21
1135.8150777158600704
 31
0.0
 12
2495.4038095902537862
 22
1140.8150777158618894
 32
0.0
 13
2495.4038095902537862
 23
1140.8150777158618894
 33
0.0
  0
ARC
  5
5F1C
  8
0
  6
HIDDEN
 62
     7
 10
1077.4065555924069031
 20
958.7623321608700735
 30
0.0
 40
22.5
 50
270.0
 51
0.000000000000007
  0
ARC
  5
5F1D
  8
0
  6
HIDDEN
 62
     7
 10
1077.4065555924069031
 20
958.7623321608700735
 30
0.0
 40
10.0
 50
270.0
 51
0.000000000000007
  0
LINE
  5
5F1E
  8
0
  6
HIDDEN
 62
     7
 10
1077.4065555924069031
 20
948.7623321608700735
 30
0.0
 11
1034.9065555924050841
 21
948.7623321608700735
 31
0.0
  0
LINE
  5
5F1F
  8
0
  6
HIDDEN
 62
     7
 10
1070.4065555924069031
 20
929.2623321608720062
 30
0.0
 11
1035.4065555924069031
 21
929.2623321608720062
 31
0.0
  0
LINE
  5
5F20
  8
0
  6
HIDDEN
 62
     7
 10
1077.4065555924069031
 20
936.2623321608721199
 30
0.0
 11
1034.9065555924050841
 21
936.2623321608721199
 31
0.0
  0
LINE
  5
5F21
  8
0
  6
HIDDEN
 62
     7
 10
1034.9065555924050841
 20
936.2623321608721199
 30
0.0
 11
1034.9065555924050841
 21
948.7623321608700735
 31
0.0
  0
LINE
  5
5F22
  8
0
  6
HIDDEN
 62
     7
 10
1035.4065555924069031
 20
929.2623321608700735
 30
0.0
 11
1035.4065555924069031
 21
932.2623321608720062
 31
0.0
  0
ARC
  5
5F23
  8
0
  6
HIDDEN
 62
     7
 10
1039.4065555924069031
 20
932.2623321608720062
 30
0.0
 40
4.0
 50
90.0
 51
180.0
  0
LINE
  5
5F24
  8
0
  6
HIDDEN
 62
     7
 10
1052.9065555924050841
 20
929.2623321608720062
 30
0.0
 11
1052.9065555924050841
 21
938.934533206457445
 31
0.0
  0
ARC
  5
5F26
  8
0
  6
HIDDEN
 62
     7
 10
1066.4065555924059936
 20
932.2623321608720062
 30
0.0
 40
4.0
 50
0.000000000000007
 51
90.0
  0
LINE
  5
5F27
  8
0
  6
HIDDEN
 62
     7
 10
1099.9065555924069031
 20
1006.2623321608699598
 30
0.0
 11
1087.4065555924069031
 21
1006.2623321608699598
 31
0.0
  0
LINE
  5
5F28
  8
0
  6
HIDDEN
 62
     7
 10
1087.4065555924069031
 20
958.7623321608700735
 30
0.0
 11
1087.4065555924069031
 21
1006.2623321608699598
 31
0.0
  0
POINT
  5
5F2A
  8
0
  6
HIDDEN
 62
     7
 10
1052.9065555924050841
 20
936.2623321608721199
 30
0.0
 50
0.000000000000007
  0
LINE
  5
5F2B
  8
0
 10
1149.9065555924059936
 20
1052.6623321608710739
 30
0.0
 11
1149.9065555924059936
 21
959.7623321608722335
 31
0.0
  0
LINE
  5
5F2C
  8
0
 10
1152.4065555924059936
 20
1055.1623321608719834
 30
0.0
 11
1118.4065555924069031
 21
1055.1623321608719834
 31
0.0
  0
LINE
  5
5F2D
  8
0
 10
1149.9065555924069031
 20
1052.6623321608710739
 30
0.0
 11
1118.4065555924069031
 21
1052.6623321608710739
 31
0.0
  0
LINE
  5
5F2E
  8
0
 10
1152.4065555924069031
 20
959.7623321608722335
 30
0.0
 11
1149.9065555924059936
 21
959.7623321608722335
 31
0.0
  0
LINE
  5
5F2F
  8
0
 10
1118.4065555924069031
 20
1055.1623321608719834
 30
0.0
 11
1118.4065555924069031
 21
1052.6623321608710739
 31
0.0
  0
LINE
  5
5F30
  8
0
 10
1136.4065555924059936
 20
1060.1623321608719834
 30
0.0
 11
1136.4065555924059936
 21
1047.6623321608719834
 31
0.0
  0
LINE
  5
5F31
  8
0
  6
HIDDEN
 62
     7
 10
1152.4065555924069031
 20
958.7623321608700735
 30
0.0
 11
1152.4065555924069031
 21
1006.2623321608699598
 31
0.0
  0
ARC
  5
5F32
  8
0
  6
HIDDEN
 62
     7
 10
1128.3965555924069122
 20
958.7623321608700735
 30
0.0
 40
22.5
 50
270.0
 51
0.000000000000007
  0
ARC
  5
5F33
  8
0
  6
HIDDEN
 62
     7
 10
1128.3965555924069122
 20
958.7623321608700735
 30
0.0
 40
10.0
 50
270.0
 51
0.000000000000007
  0
LINE
  5
5F34
  8
0
  6
HIDDEN
 62
     7
 10
1128.3965555924069122
 20
948.7623321608700735
 30
0.0
 11
1086.1465555924060027
 21
948.7623321608700735
 31
0.0
  0
LINE
  5
5F35
  8
0
  6
HIDDEN
 62
     7
 10
1121.6465555924069122
 20
929.2623321608720062
 30
0.0
 11
1086.6465555924060027
 21
929.2623321608720062
 31
0.0
  0
LINE
  5
5F36
  8
0
  6
HIDDEN
 62
     7
 10
1128.3965555924069122
 20
936.2623321608721199
 30
0.0
 11
1086.1465555924060027
 21
936.2623321608721199
 31
0.0
  0
LINE
  5
5F37
  8
0
  6
HIDDEN
 62
     7
 10
1086.1465555924060027
 20
936.2623321608721199
 30
0.0
 11
1086.1465555924060027
 21
948.7623321608700735
 31
0.0
  0
LINE
  5
5F38
  8
0
  6
HIDDEN
 62
     7
 10
1086.6465555924060027
 20
929.2623321608700735
 30
0.0
 11
1086.6465555924060027
 21
932.2623321608720062
 31
0.0
  0
ARC
  5
5F39
  8
0
  6
HIDDEN
 62
     7
 10
1090.6465555924060027
 20
932.2623321608720062
 30
0.0
 40
4.0
 50
90.0
 51
180.0
  0
LINE
  5
5F3A
  8
0
  6
HIDDEN
 62
     7
 10
1104.1465555924060027
 20
929.2623321608720062
 30
0.0
 11
1104.1465555924060027
 21
938.934533206457445
 31
0.0
  0
LINE
  5
5F3B
  8
0
  6
HIDDEN
 62
     7
 10
1121.6465555924069122
 20
929.2623321608700735
 30
0.0
 11
1121.6465555924069122
 21
932.2623321608720062
 31
0.0
  0
ARC
  5
5F3C
  8
0
  6
HIDDEN
 62
     7
 10
1117.6465555924069122
 20
932.2623321608720062
 30
0.0
 40
4.0
 50
0.000000000000007
 51
90.0
  0
LINE
  5
5F3D
  8
0
  6
HIDDEN
 62
     7
 10
1150.8965555924060027
 20
1006.2623321608699598
 30
0.0
 11
1138.3965555924069122
 21
1006.2623321608699598
 31
0.0
  0
LINE
  5
5F3E
  8
0
  6
HIDDEN
 62
     7
 10
1138.3965555924069122
 20
958.7623321608700735
 30
0.0
 11
1138.3965555924069122
 21
1006.2623321608699598
 31
0.0
  0
LINE
  5
5F3F
  8
0
  6
HIDDEN
 62
     7
 10
1152.4065555924069031
 20
958.7623321608700735
 30
0.0
 11
1152.4065555924069031
 21
1006.2623321608699598
 31
0.0
  0
POINT
  5
5F40
  8
0
  6
HIDDEN
 62
     7
 10
1104.1465555924060027
 20
936.2623321608721199
 30
0.0
 50
0.000000000000007
  0
LINE
  5
5F41
  8
0
  6
HIDDEN
 62
     7
 10
2501.9065555924048567
 20
958.7623321608704146
 30
0.0
 11
2501.9065555924048567
 21
1006.2623321608699598
 31
0.0
  0
LINE
  5
5F42
  8
0
  6
HIDDEN
 62
     7
 10
2501.9065555924048567
 20
958.7623321608700735
 30
0.0
 11
2501.9065555924048567
 21
1006.2623321608699598
 31
0.0
  0
ARC
  5
5F43
  8
0
  6
HIDDEN
 62
     7
 10
2524.4065555924039472
 20
958.7623321608700735
 30
0.0
 40
22.5
 50
180.0
 51
270.0
  0
ARC
  5
5F44
  8
0
  6
HIDDEN
 62
     7
 10
2524.4065555924039472
 20
958.7623321608700735
 30
0.0
 40
10.0
 50
180.0
 51
270.0
  0
LINE
  5
5F45
  8
0
  6
HIDDEN
 62
     7
 10
2524.4065555924039472
 20
948.7623321608700735
 30
0.0
 11
2566.9065555924039472
 21
948.7623321608700735
 31
0.0
  0
LINE
  5
5F46
  8
0
  6
HIDDEN
 62
     7
 10
2531.4065555924030377
 20
929.2623321608720062
 30
0.0
 11
2566.4065555924030377
 21
929.2623321608720062
 31
0.0
  0
LINE
  5
5F47
  8
0
  6
HIDDEN
 62
     7
 10
2524.4065555924039472
 20
936.2623321608721199
 30
0.0
 11
2566.9065555924039472
 21
936.2623321608721199
 31
0.0
  0
LINE
  5
5F48
  8
0
  6
HIDDEN
 62
     7
 10
2566.9065555924039472
 20
936.2623321608721199
 30
0.0
 11
2566.9065555924039472
 21
948.7623321608700735
 31
0.0
  0
LINE
  5
5F49
  8
0
  6
HIDDEN
 62
     7
 10
2566.4065555924030377
 20
929.2623321608700735
 30
0.0
 11
2566.4065555924030377
 21
932.2623321608720062
 31
0.0
  0
ARC
  5
5F4A
  8
0
  6
HIDDEN
 62
     7
 10
2562.4065555924030377
 20
932.2623321608720062
 30
0.0
 40
4.0
 50
0.000000000000007
 51
90.0
  0
LINE
  5
5F4B
  8
0
  6
HIDDEN
 62
     7
 10
2548.9065555924030377
 20
929.2623321608720062
 30
0.0
 11
2548.9065555924030377
 21
938.934533206457445
 31
0.0
  0
LINE
  5
5F4C
  8
0
  6
HIDDEN
 62
     7
 10
2531.4065555924030377
 20
929.2623321608700735
 30
0.0
 11
2531.4065555924030377
 21
932.2623321608720062
 31
0.0
  0
ARC
  5
5F4D
  8
0
  6
HIDDEN
 62
     7
 10
2535.4065555924048567
 20
932.2623321608720062
 30
0.0
 40
4.0
 50
90.0
 51
180.0
  0
LINE
  5
5F4E
  8
0
  6
HIDDEN
 62
     7
 10
2501.9065555924048567
 20
1006.2623321608699598
 30
0.0
 11
2514.4065555924039472
 21
1006.2623321608699598
 31
0.0
  0
LINE
  5
5F4F
  8
0
  6
HIDDEN
 62
     7
 10
2514.4065555924039472
 20
958.7623321608700735
 30
0.0
 11
2514.4065555924039472
 21
1006.2623321608699598
 31
0.0
  0
LINE
  5
5F50
  8
0
  6
HIDDEN
 62
     7
 10
2501.9065555924048567
 20
958.7623321608700735
 30
0.0
 11
2501.9065555924048567
 21
1006.2623321608699598
 31
0.0
  0
POINT
  5
5F51
  8
0
  6
HIDDEN
 62
     7
 10
2548.9065555924030377
 20
936.2623321608721199
 30
0.0
 50
180.0
  0
LINE
  5
5F52
  8
0
  6
HIDDEN
 62
     7
 10
2444.4065555924039472
 20
958.762332160869164
 30
0.0
 11
2444.4065555924039472
 21
1006.2623321608690503
 31
0.0
  0
LINE
  5
5F53
  8
0
  6
HIDDEN
 62
     7
 10
2444.4065555924039472
 20
958.7623321608687093
 30
0.0
 11
2444.4065555924039472
 21
1006.2623321608690503
 31
0.0
  0
ARC
  5
5F54
  8
0
  6
HIDDEN
 62
     7
 10
2466.9065555924071305
 20
958.762332160869164
 30
0.0
 40
22.5
 50
180.0
 51
270.0
  0
ARC
  5
5F55
  8
0
  6
HIDDEN
 62
     7
 10
2466.9065555924071305
 20
958.762332160869164
 30
0.0
 40
10.0
 50
180.0
 51
270.0
  0
LINE
  5
5F56
  8
0
  6
HIDDEN
 62
     7
 10
2466.9065555924071305
 20
948.762332160869164
 30
0.0
 11
2513.15655559240804
 21
948.762332160869164
 31
0.0
  0
LINE
  5
5F57
  8
0
  6
HIDDEN
 62
     7
 10
2477.6565555924039472
 20
929.262332160871324
 30
0.0
 11
2512.656555592406221
 21
929.262332160871324
 31
0.0
  0
LINE
  5
5F58
  8
0
  6
HIDDEN
 62
     7
 10
2466.9065555924071305
 20
936.2623321608706419
 30
0.0
 11
2513.15655559240804
 21
936.2623321608706419
 31
0.0
  0
LINE
  5
5F59
  8
0
  6
HIDDEN
 62
     7
 10
2513.15655559240804
 20
936.2623321608706419
 30
0.0
 11
2513.15655559240804
 21
948.762332160869164
 31
0.0
  0
LINE
  5
5F5A
  8
0
  6
HIDDEN
 62
     7
 10
2512.656555592406221
 20
929.262332160869164
 30
0.0
 11
2512.656555592406221
 21
932.262332160871324
 31
0.0
  0
ARC
  5
5F5B
  8
0
  6
HIDDEN
 62
     7
 10
2508.656555592406221
 20
932.262332160871324
 30
0.0
 40
4.0
 50
0.000000000000007
 51
90.0
  0
LINE
  5
5F5C
  8
0
  6
HIDDEN
 62
     7
 10
2495.156555592406221
 20
929.262332160871324
 30
0.0
 11
2495.156555592406221
 21
938.9345332064567629
 31
0.0
  0
LINE
  5
5F5D
  8
0
  6
HIDDEN
 62
     7
 10
2477.6565555924039472
 20
929.262332160869164
 30
0.0
 11
2477.6565555924039472
 21
932.262332160871324
 31
0.0
  0
ARC
  5
5F5E
  8
0
  6
HIDDEN
 62
     7
 10
2481.6565555924039472
 20
932.262332160871324
 30
0.0
 40
4.0
 50
90.0
 51
180.0
  0
LINE
  5
5F5F
  8
0
  6
HIDDEN
 62
     7
 10
2444.4065555924039472
 20
1006.2623321608690503
 30
0.0
 11
2456.906555592406221
 21
1006.2623321608690503
 31
0.0
  0
LINE
  5
5F60
  8
0
  6
HIDDEN
 62
     7
 10
2456.906555592406221
 20
958.762332160869164
 30
0.0
 11
2456.906555592406221
 21
1006.2623321608690503
 31
0.0
  0
LINE
  5
5F61
  8
0
  6
HIDDEN
 62
     7
 10
2444.4065555924039472
 20
958.762332160869164
 30
0.0
 11
2444.4065555924039472
 21
1006.2623321608690503
 31
0.0
  0
POINT
  5
5F62
  8
0
  6
HIDDEN
 62
     7
 10
2495.156555592406221
 20
936.2623321608706419
 30
0.0
 50
180.0
  0
LINE
  5
5F70
  8
0
 62
     7
 10
1136.4065555924059936
 20
1690.1001991520779484
 30
0.0
 11
1136.4065555924059936
 21
1508.6518225811419143
 31
0.0
  0
LINE
  5
6368
  8
0
 10
2572.2565555924070395
 20
773.5843665104870297
 30
0.0
 11
2572.2565555924070395
 21
758.8843665104864158
 31
0.0
  0
LINE
  5
636A
  8
0
 10
2501.90655559240804
 20
2142.7101991520771662
 30
0.0
 11
2568.9565555924082219
 21
2142.7101991520771662
 31
0.0
  0
LINE
  5
636B
  8
0
 10
2568.9565555924082219
 20
2141.7101991520780757
 30
0.0
 11
2584.9565555924082219
 21
2141.7101991520780757
 31
0.0
  0
LINE
  5
636C
  8
0
 10
2501.90655559240804
 20
2164.710199152075802
 30
0.0
 11
2568.9565555924082219
 21
2164.7101991520780757
 31
0.0
  0
LINE
  5
636D
  8
0
 10
2568.9565555924082219
 20
2165.7101991520780757
 30
0.0
 11
2584.9565555924082219
 21
2165.7101991520780757
 31
0.0
  0
LINE
  5
636E
  8
0
 10
2584.9565555924082219
 20
2165.7101991520780757
 30
0.0
 11
2584.9565555924082219
 21
2141.7101991520780757
 31
0.0
  0
LINE
  5
636F
  8
0
 10
2568.9565555924082219
 20
2165.7101991520780757
 30
0.0
 11
2568.9565555924082219
 21
2160.0601991520770753
 31
0.0
  0
LINE
  5
6371
  8
0
 10
2501.90655559240804
 20
2147.3601991520790762
 30
0.0
 11
2572.2565555924070395
 21
2147.3601991520790762
 31
0.0
  0
LINE
  5
6372
  8
0
 10
2572.2565555924070395
 20
2146.3601991520790762
 30
0.0
 11
2584.9565555924082219
 21
2146.3601991520790762
 31
0.0
  0
LINE
  5
6373
  8
0
 10
2501.90655559240804
 20
2160.0601991520770753
 30
0.0
 11
2572.2565555924070395
 21
2160.0601991520770753
 31
0.0
  0
LINE
  5
6374
  8
0
 10
2572.2565555924070395
 20
2161.0601991520770753
 30
0.0
 11
2584.9565555924082219
 21
2161.0601991520770753
 31
0.0
  0
LINE
  5
6375
  8
0
 10
2584.9565555924082219
 20
2161.0601991520770753
 30
0.0
 11
2584.9565555924082219
 21
2146.3601991520790762
 31
0.0
  0
LINE
  5
6376
  8
0
 10
2572.2565555924070395
 20
2161.0601991520770753
 30
0.0
 11
2572.2565555924070395
 21
2146.3601991520790762
 31
0.0
  0
LINE
  5
6377
  8
0
 10
2521.8565555924069486
 20
2345.2001991520801312
 30
0.0
 11
2521.8565555924069486
 21
2163.7101991520771662
 31
0.0
  0
LINE
  5
6DA9
  8
0
 62
     7
 10
2548.9065555924048567
 20
956.2623321608701872
 30
0.0
 11
2548.9065555924048567
 21
1219.9668517125180642
 31
0.0
  0
CIRCLE
  5
7168
  8
0
 10
3569.0330082436212251
 20
998.2623321608722335
 30
0.0
 40
6.0
  0
CIRCLE
  5
716A
  8
0
 10
3569.0330082436212251
 20
968.2623321608723472
 30
0.0
 40
6.0
  0
CIRCLE
  5
716B
  8
0
 10
2903.0330082436212251
 20
998.2623321608722335
 30
0.0
 40
6.0
  0
CIRCLE
  5
716C
  8
0
 10
2903.0330082436212251
 20
968.2623321608723472
 30
0.0
 40
6.0
  0
LINE
  5
71B9
  8
0
 10
2501.90655559240804
 20
1044.1623321608719834
 30
0.0
 11
2501.90655559240804
 21
649.1623321608717561
 31
0.0
  0
LINE
  5
71BA
  8
0
 10
2501.9065555924030377
 20
1055.1623321608719834
 30
0.0
 11
2501.9065555924030377
 21
959.7623321608722335
 31
0.0
  0
LINE
  5
71BB
  8
0
 10
2504.4065555924071305
 20
1052.6623321608710739
 30
0.0
 11
2504.4065555924071305
 21
959.7623321608722335
 31
0.0
  0
LINE
  5
71BC
  8
0
 10
2501.9065555924030377
 20
959.7623321608722335
 30
0.0
 11
2504.4065555924071305
 21
959.7623321608722335
 31
0.0
  0
LINE
  5
71BD
  8
0
 10
1152.4065555924069031
 20
649.1623321608717561
 30
0.0
 11
1099.9065555924069031
 21
649.1623321608717561
 31
0.0
  0
LINE
  5
7997
  8
0
 10
2568.9565555924082219
 20
2147.3601991520790762
 30
0.0
 11
2568.9565555924082219
 21
2141.7101991520780757
 31
0.0
  0
LINE
  5
799C
  8
0
 10
2520.4065555924048567
 20
859.477332160872038
 30
0.0
 11
2444.4065555924039472
 21
859.477332160872038
 31
0.0
  0
LINE
  5
799D
  8
0
 10
2453.4065555924071305
 20
646.4773321608719243
 30
0.0
 11
2444.4065555924039472
 21
646.4773321608719243
 31
0.0
  0
LINE
  5
799E
  8
0
 10
2453.406555592406221
 20
859.477332160872038
 30
0.0
 11
2453.4065555924071305
 21
646.4773321608719243
 31
0.0
  0
LINE
  5
799F
  8
0
 10
2520.4065555924039472
 20
1028.477332160872038
 30
0.0
 11
2520.4065555924048567
 21
859.477332160872038
 31
0.0
  0
CIRCLE
  5
79AB
  8
0
 10
3456.4580082436200428
 20
634.3258443717791124
 30
0.0
 40
9.5
  0
LINE
  5
79AC
  8
0
 10
2949.8830082436202247
 20
859.4773321608722654
 30
0.0
 11
3258.8830082436238627
 21
859.477332160872038
 31
0.0
  0
LINE
  5
79B7
  8
0
 10
2974.8830082436188604
 20
646.4773321608719243
 30
0.0
 11
3245.8830082436238627
 21
646.4773321608719243
 31
0.0
  0
LINE
  5
79BA
  8
0
 10
3245.8830082436238627
 20
859.477332160872038
 30
0.0
 11
3245.8830082436238627
 21
646.4773321608719243
 31
0.0
  0
LINE
  5
79BB
  8
0
 10
2974.8830082436202247
 20
859.4773321608722654
 30
0.0
 11
2974.8830082436170414
 21
646.4773321608719243
 31
0.0
  0
LINE
  5
79C8
  8
0
 62
     7
 10
1134.8819476964849855
 20
2425.6501991520772208
 30
0.0
 11
966.7087045492252173
 21
2425.6501991520772208
 31
0.0
  0
LINE
  5
79C9
  8
0
 62
     7
 10
986.7087045492212383
 20
2395.6501991520772208
 30
0.0
 11
986.7087045492221478
 21
2324.9262981529927856
 31
0.0
  0
SOLID
  5
79CA
  8
0
 62
     7
 10
991.708704549225331
 20
2395.6501991520772208
 30
0.0
 11
981.7087045492207835
 21
2395.6501991520772208
 31
0.0
 12
986.7087045492212383
 22
2425.6501991520772208
 32
0.0
 13
986.7087045492212383
 23
2425.6501991520772208
 33
0.0
  0
TEXT
  5
79CB
  8
0
 62
     7
 10
999.2087045492228299
 20
2252.0104554320150783
 30
0.0
 40
25.0
  1
300
 50
90.0
  0
LINE
  5
79CC
  8
0
 62
     7
 10
1066.29357692214694
 20
2125.6501991520781303
 30
0.0
 11
966.7087045492252173
 21
2125.6501991520781303
 31
0.0
  0
LINE
  5
79CD
  8
0
 62
     7
 10
986.7087045492212383
 20
2155.6501991520781303
 30
0.0
 11
986.7087045492212383
 21
2245.7596314863249063
 31
0.0
  0
SOLID
  5
79CE
  8
0
 62
     7
 10
991.708704549225331
 20
2155.6501991520781303
 30
0.0
 11
981.7087045492207835
 21
2155.6501991520781303
 31
0.0
 12
986.7087045492212383
 22
2125.6501991520781303
 32
0.0
 13
986.7087045492212383
 23
2125.6501991520781303
 33
0.0
  0
LINE
  5
79D1
  8
0
 62
     7
 10
1066.29357692214694
 20
2125.6501991520781303
 30
0.0
 11
966.7087045492252173
 21
2125.6501991520781303
 31
0.0
  0
LINE
  5
79D2
  8
0
 62
     7
 10
986.7087045492212383
 20
2095.6501991520781303
 30
0.0
 11
986.7087045492221478
 21
1918.6449071649360576
 31
0.0
  0
SOLID
  5
79D3
  8
0
 62
     7
 10
991.708704549225331
 20
2095.6501991520781303
 30
0.0
 11
981.7087045492207835
 21
2095.6501991520781303
 31
0.0
 12
986.7087045492212383
 22
2125.6501991520781303
 32
0.0
 13
986.7087045492212383
 23
2125.6501991520781303
 33
0.0
  0
TEXT
  5
79D4
  8
0
 62
     7
 10
999.2087045492228299
 20
1845.729064443956986
 30
0.0
 40
25.0
  1
486
 50
90.0
  0
LINE
  5
79D5
  8
0
 62
     7
 10
1234.0914135100249496
 20
1641.6501991520779029
 30
0.0
 11
966.7087045492252173
 21
1641.6501991520779029
 31
0.0
  0
LINE
  5
79D6
  8
0
 62
     7
 10
986.7087045492212383
 20
1671.6501991520779029
 30
0.0
 11
986.7087045492212383
 21
1839.4782404982679509
 31
0.0
  0
SOLID
  5
79D7
  8
0
 62
     7
 10
991.708704549225331
 20
1671.6501991520779029
 30
0.0
 11
981.7087045492207835
 21
1671.6501991520779029
 31
0.0
 12
986.7087045492212383
 22
1641.6501991520779029
 32
0.0
 13
986.7087045492212383
 23
1641.6501991520779029
 33
0.0
  0
TEXT
  5
79DB
  8
0
 62
     7
 10
1036.2665393712029527
 20
2202.6310861191600452
 30
0.0
 40
25.0
  1
Coil box
 50
90.0
  0
TEXT
  5
79DC
  8
0
 62
     7
 10
1036.2665393712029527
 20
1807.5961129755239654
 30
0.0
 40
25.0
  1
Fan box
 50
90.0
  0
CIRCLE
  5
7ACB
  8
0
 10
3356.9430082436228986
 20
746.1394916979569416
 30
0.0
 40
5.0
  0
CIRCLE
  5
7ACC
  8
0
 10
3356.9430082436228986
 20
688.392332160872229
 30
0.0
 40
9.5
  0
LINE
  5
800C
  8
0
  6
PHANTOM
 62
     7
 10
579.9565555924131104
 20
2384.6501991520799493
 30
0.0
 11
579.9565555924082219
 21
1641.6501991520760839
 31
0.0
  0
LINE
  5
800D
  8
0
  6
PHANTOM
 62
     7
 10
579.9565555924082219
 20
1641.6501991520760839
 30
0.0
 11
946.7087045492252173
 21
1641.6501991520779029
 31
0.0
  0
TEXT
  5
800E
  8
0
 62
     7
 10
563.3450722116726865
 20
1805.0763461498279412
 30
0.0
 40
25.0
  1
500 mm CLEARENCE
 50
90.0
  7
TITLE3
  0
LINE
  5
800F
  8
0
  6
PHANTOM
 62
     7
 10
966.708704549221352
 20
2384.650199152084042
 30
0.0
 11
579.9565555924131104
 21
2384.6501991520799493
 31
0.0
  0
ENDSEC
  0
EOF
