  0
SECTION
  2
HEADER
  9
$ACADVER
  1
AC1009
  9
$INSBASE
 10
0.0
 20
0.0
 30
0.0
  9
$EXTMIN
 10
1575.6826981712179077
 20
-148.1667746308121139
 30
-0.0000000000000053
  9
$EXTMAX
 10
5835.1187292289905599
 20
3481.9523400746620609
 30
0.0000000000000099
  9
$LIMMIN
 10
0.0
 20
0.0
  9
$LIMMAX
 10
7780.0
 20
5320.0
  9
$ORTHOMODE
 70
     1
  9
$REGENMODE
 70
     1
  9
$FILLMODE
 70
     1
  9
$QTEXTMODE
 70
     0
  9
$MIRRTEXT
 70
     0
  9
$DRAGMODE
 70
     2
  9
$LTSCALE
 40
100.0
  9
$OSMODE
 70
  4095
  9
$ATTMODE
 70
     1
  9
$TEXTSIZE
 40
45.0
  9
$TRACEWID
 40
0.05
  9
$TEXTSTYLE
  7
TITLE3
  9
$CLAYER
  8
OUTLINE
  9
$CELTYPE
  6
BYLAYER
  9
$CECOLOR
 62
   256
  9
$DIMSCALE
 40
1.0
  9
$DIMASZ
 40
0.12
  9
$DIMEXO
 40
0.05
  9
$DIMDLI
 40
0.5
  9
$DIMRND
 40
0.0
  9
$DIMDLE
 40
0.0
  9
$DIMEXE
 40
0.1
  9
$DIMTP
 40
0.1
  9
$DIMTM
 40
0.1
  9
$DIMTXT
 40
0.12
  9
$DIMCEN
 40
0.0
  9
$DIMTSZ
 40
0.0
  9
$DIMTOL
 70
     0
  9
$DIMLIM
 70
     0
  9
$DIMTIH
 70
     1
  9
$DIMTOH
 70
     1
  9
$DIMSE1
 70
     0
  9
$DIMSE2
 70
     0
  9
$DIMTAD
 70
     0
  9
$DIMZIN
 70
     7
  9
$DIMBLK
  1

  9
$DIMASO
 70
     0
  9
$DIMSHO
 70
     0
  9
$DIMPOST
  1

  9
$DIMAPOST
  1
mm
  9
$DIMALT
 70
     0
  9
$DIMALTD
 70
     2
  9
$DIMALTF
 40
25.3999999999999986
  9
$DIMLFAC
 40
1.0
  9
$DIMTOFL
 70
     0
  9
$DIMTVP
 40
0.0
  9
$DIMTIX
 70
     0
  9
$DIMSOXD
 70
     0
  9
$DIMSAH
 70
     0
  9
$DIMBLK1
  1

  9
$DIMBLK2
  1

  9
$DIMSTYLE
  2
AM_ANSI
  9
$DIMCLRD
 70
   256
  9
$DIMCLRE
 70
   256
  9
$DIMCLRT
 70
     2
  9
$DIMTFAC
 40
0.71
  9
$DIMGAP
 40
0.06
  9
$LUNITS
 70
     2
  9
$LUPREC
 70
     2
  9
$SKETCHINC
 40
0.1
  9
$FILLETRAD
 40
0.0
  9
$AUNITS
 70
     0
  9
$AUPREC
 70
     2
  9
$MENU
  1
\acad12\support\cnc
  9
$ELEVATION
 40
0.0
  9
$PELEVATION
 40
0.0
  9
$THICKNESS
 40
0.0
  9
$LIMCHECK
 70
     0
  9
$BLIPMODE
 70
     0
  9
$CHAMFERA
 40
0.0
  9
$CHAMFERB
 40
0.0
  9
$SKPOLY
 70
     0
  9
$TDCREATE
 40
2451402.6391435191035271
  9
$TDUPDATE
 40
2458892.6110532409511507
  9
$TDINDWG
 40
0.5831801736
  9
$TDUSRTIMER
 40
0.583171956
  9
$USRTIMER
 70
     1
  9
$ANGBASE
 50
0.0
  9
$ANGDIR
 70
     0
  9
$PDMODE
 70
     2
  9
$PDSIZE
 40
15.0
  9
$PLINEWID
 40
0.0
  9
$COORDS
 70
     1
  9
$SPLFRAME
 70
     0
  9
$SPLINETYPE
 70
     6
  9
$SPLINESEGS
 70
     8
  9
$ATTDIA
 70
     1
  9
$ATTREQ
 70
     1
  9
$HANDLING
 70
     1
  9
$HANDSEED
  5
2A84
  9
$SURFTAB1
 70
     6
  9
$SURFTAB2
 70
     6
  9
$SURFTYPE
 70
     6
  9
$SURFU
 70
     6
  9
$SURFV
 70
     6
  9
$UCSNAME
  2

  9
$UCSORG
 10
0.0
 20
0.0
 30
0.0
  9
$UCSXDIR
 10
1.0
 20
0.0
 30
0.0
  9
$UCSYDIR
 10
0.0
 20
1.0
 30
0.0
  9
$PUCSNAME
  2

  9
$PUCSORG
 10
0.0
 20
0.0
 30
0.0
  9
$PUCSXDIR
 10
1.0
 20
0.0
 30
0.0
  9
$PUCSYDIR
 10
0.0
 20
1.0
 30
0.0
  9
$USERI1
 70
     0
  9
$USERI2
 70
     0
  9
$USERI3
 70
     0
  9
$USERI4
 70
     0
  9
$USERI5
 70
     0
  9
$USERR1
 40
0.0
  9
$USERR2
 40
0.0
  9
$USERR3
 40
0.0
  9
$USERR4
 40
0.0
  9
$USERR5
 40
0.0
  9
$WORLDVIEW
 70
     1
  9
$SHADEDGE
 70
     3
  9
$SHADEDIF
 70
    70
  9
$TILEMODE
 70
     1
  9
$MAXACTVP
 70
    16
  9
$PLIMCHECK
 70
     0
  9
$PEXTMIN
 10
1.0000000000000000E+20
 20
1.0000000000000000E+20
 30
1.0000000000000000E+20
  9
$PEXTMAX
 10
-1.0000000000000000E+20
 20
-1.0000000000000000E+20
 30
-1.0000000000000000E+20
  9
$PLIMMIN
 10
0.0
 20
0.0
  9
$PLIMMAX
 10
12.0
 20
9.0
  9
$UNITMODE
 70
     0
  9
$VISRETAIN
 70
     0
  9
$PLINEGEN
 70
     0
  9
$PSLTSCALE
 70
     0
  0
ENDSEC
  0
SECTION
  2
TABLES
  0
TABLE
  2
VPORT
 70
     1
  0
VPORT
  2
*ACTIVE
 70
     0
 10
0.0
 20
0.0
 11
1.0
 21
1.0
 12
3705.4007137001040064
 22
1666.8927827219249593
 13
0.0
 23
0.0
 14
50.0
 24
50.0
 15
100.0
 25
100.0
 16
0.0
 26
0.0
 36
1.0
 17
0.0
 27
0.0
 37
0.0
 40
3653.5392380261550898
 41
1.6264800861141011
 42
50.0
 43
0.0
 44
0.0
 50
0.0
 51
0.0
 71
     0
 72
   100
 73
     1
 74
     0
 75
     0
 76
     0
 77
     0
 78
     0
  0
ENDTAB
  0
TABLE
  2
LTYPE
 70
     4
  0
LTYPE
  2
CONTINUOUS
 70
     0
  3
Solid line
 72
    65
 73
     0
 40
0.0
  0
LTYPE
  2
PHANTOM
 70
     0
  3
______  __  __  ______  __  __  ______  __  __ 
 72
    65
 73
     6
 40
2.5
 49
1.25
 49
-0.25
 49
0.25
 49
-0.25
 49
0.25
 49
-0.25
  0
ENDTAB
  0
TABLE
  2
LAYER
 70
     8
  0
LAYER
  2
0
 70
     0
 62
     7
  6
CONTINUOUS
  0
LAYER
  2
OUTLINE
 70
     0
 62
     7
  6
CONTINUOUS
  0
LAYER
  2
TEXT
 70
     0
 62
   100
  6
CONTINUOUS
  0
LAYER
  2
DIM
 70
     0
 62
     2
  6
CONTINUOUS
  0
LAYER
  2
MTG-FEET
 70
     0
 62
    30
  6
CONTINUOUS
  0
LAYER
  2
OVERLAY-A3
 70
     0
 62
     7
  6
CONTINUOUS
  0
LAYER
  2
CLEAR
 70
     0
 62
     1
  6
PHANTOM
  0
LAYER
  2
VISIBLE
 70
     0
 62
     7
  6
CONTINUOUS
  0
ENDTAB
  0
TABLE
  2
STYLE
 70
     6
  0
STYLE
  2
STANDARD
 70
     0
 40
0.0
 41
1.0
 50
0.0
 71
     0
 42
0.2
  3
txt
  4

  0
STYLE
  2
ANNOTATIVE
 70
     0
 40
0.0
 41
1.0
 50
0.0
 71
     0
 42
0.2
  3
txt
  4

  0
STYLE
  2
TITLE3
 70
     0
 40
45.0
 41
1.0
 50
0.0
 71
     0
 42
45.0
  3
SIMPLEX
  4

  0
STYLE
  2
TITLE5
 70
     0
 40
75.0
 41
1.0
 50
0.0
 71
     0
 42
100.0
  3
SIMPLEX
  4

  0
STYLE
  2
SIMPLEX
 70
     0
 40
60.0
 41
1.0
 50
0.0
 71
     0
 42
60.0
  3
simplex
  4

  0
STYLE
  2
NOTE_TEXT
 70
     0
 40
0.0
 41
1.0
 50
0.0
 71
     0
 42
0.2
  3
txt
  4

  0
ENDTAB
  0
TABLE
  2
VIEW
 70
     0
  0
ENDTAB
  0
TABLE
  2
UCS
 70
     0
  0
ENDTAB
  0
TABLE
  2
APPID
 70
    15
  0
APPID
  2
ACAD
 70
     0
  0
APPID
  2
ACADANNOTATIVE
 70
     0
  0
APPID
  2
ACAD_MLEADERVER
 70
     0
  0
APPID
  2
ACAD_PSEXT
 70
     0
  0
APPID
  2
MCAD_NO_VIS
 70
     0
  0
APPID
  2
ACAD_TEMP_GRAPHIC
 70
     0
  0
APPID
  2
AD_DRAW
 70
     0
  0
APPID
  2
ACATTRIBSERVICES
 70
     0
  0
APPID
  2
DESIGNERASSEMBLIES
 70
     0
  0
APPID
  2
ACADM_DIM_EDIT
 70
     0
  0
APPID
  2
AMDT_DM_ADJ
 70
     0
  0
APPID
  2
ACAD_EXEMPT_FROM_CAD_STANDARDS
 70
     0
  0
APPID
  2
ACAD_NAV_VCDISPLAY
 70
     0
  0
APPID
  2
ACAD_DSTYLE_DIMBREAK
 70
     0
  0
APPID
  2
ACAD_DSTYLE_DIMJAG
 70
     0
  0
ENDTAB
  0
TABLE
  2
DIMSTYLE
 70
     5
  0
DIMSTYLE
  2
STANDARD
 70
     0
  3

  4

  5

  6

  7

 40
1.0
 41
0.18
 42
0.0625
 43
0.38
 44
0.18
 45
0.0
 46
0.0
 47
0.0
 48
0.0
140
0.18
141
0.09
142
0.0
143
25.3999999999999986
144
1.0
145
0.0
146
1.0
147
0.09
 71
     0
 72
     0
 73
     1
 74
     1
 75
     0
 76
     0
 77
     0
 78
     0
170
     0
171
     2
172
     0
173
     0
174
     0
175
     0
176
     0
177
     0
178
     0
  0
DIMSTYLE
  2
ANNOTATIVE
 70
     0
  3

  4

  5

  6

  7

 40
1.0
 41
0.18
 42
0.0625
 43
0.38
 44
0.18
 45
0.0
 46
0.0
 47
0.0
 48
0.0
140
0.18
141
0.09
142
0.0
143
25.3999999999999986
144
1.0
145
0.0
146
1.0
147
0.09
 71
     0
 72
     0
 73
     1
 74
     1
 75
     0
 76
     0
 77
     0
 78
     0
170
     0
171
     2
172
     0
173
     0
174
     0
175
     0
176
     0
177
     0
178
     0
  0
DIMSTYLE
  2
AM_ANSI
 70
     0
  3

  4
mm
  5

  6

  7

 40
1.0
 41
0.12
 42
0.05
 43
0.5
 44
0.1
 45
0.0
 46
0.0
 47
0.1
 48
0.1
140
0.12
141
0.0
142
0.0
143
25.3999999999999986
144
1.0
145
0.0
146
0.71
147
0.06
 71
     0
 72
     0
 73
     1
 74
     1
 75
     0
 76
     0
 77
     0
 78
     7
170
     0
171
     2
172
     0
173
     0
174
     0
175
     0
176
   256
177
   256
178
     2
  0
DIMSTYLE
  2
DEFAULT
 70
     0
  3

  4

  5

  6

  7

 40
9.0909090909090917
 41
2.5
 42
1.600199999999999
 43
5.9999999999999991
 44
3.174999999999998
 45
0.00000001
 46
10.0
 47
0.0
 48
0.0
140
3.0500001907348619
141
0.09
142
0.0
143
1.0
144
1.0
145
0.0
146
0.9993442296981812
147
0.8
 71
     0
 72
     0
 73
     0
 74
     1
 75
     0
 76
     0
 77
     0
 78
     0
170
     0
171
     1
172
     0
173
     0
174
     0
175
     0
176
   256
177
   256
178
   256
  0
ENDTAB
  0
ENDSEC
  0
SECTION
  2
BLOCKS
  0
BLOCK
  8
0
  2
$MODEL_SPACE
 70
     0
 10
0.0
 20
0.0
 30
0.0
  3
$MODEL_SPACE
  1

  0
ENDBLK
  5
29E5
  8
0
  0
BLOCK
 67
     1
  8
0
  2
$PAPER_SPACE
 70
     0
 10
0.0
 20
0.0
 30
0.0
  3
$PAPER_SPACE
  1

  0
ENDBLK
  5
29E1
 67
     1
  8
0
  0
BLOCK
  8
0
  2
LINES
 70
     0
 10
0.0
 20
0.0
 30
0.0
  3
LINES
  1

  0
ENDBLK
  5
F67
  8
0
  0
BLOCK
  8
0
  2
*U3
 70
     1
 10
0.0
 20
0.0
 30
0.0
  3
*U3
  1

  0
TEXT
  5
186B
  8
OVERLAY-A3
 10
5609.6572296216972973
 20
4060.5630656892271872
 30
0.0
 40
45.0
  1
422 O/A
 50
90.0
  0
ENDBLK
  5
186D
  8
0
  0
BLOCK
  8
0
  2
*U4
 70
     1
 10
0.0
 20
0.0
 30
0.0
  3
*U4
  1

  0
TEXT
  5
2847
  8
OVERLAY-A3
 10
5609.6572296216972973
 20
4060.5630656892271872
 30
0.0
 40
45.0
  1
422 O/A
 50
90.0
  0
ENDBLK
  5
2848
  8
0
  0
ENDSEC
  0
SECTION
  2
ENTITIES
  0
TEXT
  5
F78
  8
0
 62
     7
 10
4272.8624271399530699
 20
259.2742466930232013
 30
0.0
 40
62.5
  1
temperzone OSA 171RLTFH
 41
1.1545742658823741
  7
TITLE5
 72
     5
 11
5740.1338900321370602
 21
259.2742466930232013
 31
0.0
  0
TEXT
  5
F79
  8
0
 62
     7
 10
5167.2070400510119725
 20
-41.0013200398965907
 30
0.0
 40
37.5
  1
OSA171RLTFH
 41
1.0747058823529401
  7
TITLE3
 72
     5
 11
5558.7070400510119725
 21
-41.0013200398965907
 31
0.0
  0
INSERT
  5
FCE
  8
MTG-FEET
  2
LINES
 10
637.4231943994607263
 20
2246.7294005091212057
 30
0.0
  0
TEXT
  5
FDF
  8
0
 62
     7
 10
4445.5737691718495626
 20
17.0
 30
0.0
 40
37.5
  1
28-01-20
 41
0.8296296296296173
  7
TITLE3
 72
     5
 11
4685.5737691718459246
 21
17.0
 31
0.0
  0
TEXT
  5
FE0
  8
OVERLAY-A3
 10
4272.3453344418740016
 20
18.2468207901514212
 30
0.0
 40
36.0
  1
Date
  7
SIMPLEX
  0
TEXT
  5
FE1
  8
OVERLAY-A3
 10
5619.1667885604028925
 20
46.254953035116813
 30
0.0
 40
36.0
  1
Revision
 41
0.7812095035934843
  7
SIMPLEX
 72
     5
 11
5777.1943110015990896
 21
46.254953035116813
 31
0.0
  0
LINE
  5
FE2
  8
OVERLAY-A3
 10
5601.7370249852401685
 20
-116.7362607275242965
 30
0.0
 11
5601.7370249852401685
 21
104.4029835628199976
 31
0.0
  0
LINE
  5
FE3
  8
OVERLAY-A3
 10
4229.0272941857228943
 20
357.826628246832172
 30
0.0
 11
4229.0272941857228943
 21
-116.7362607275242965
 31
0.0
  0
LINE
  5
FE4
  8
OVERLAY-A3
 10
5125.3705170196408289
 20
-116.7362607275242965
 30
0.0
 11
5125.3705170196408289
 21
104.4029835628199976
 31
0.0
  0
LINE
  5
FE5
  8
OVERLAY-A3
 10
5125.37051701963901
 20
-8.0311010958044982
 30
0.0
 11
4229.0272941857228943
 21
-8.0311010958044982
 31
0.0
  0
LINE
  5
FE6
  8
OVERLAY-A3
 10
5792.3631978567636907
 20
104.4029835628199976
 30
0.0
 11
4229.0272941857228943
 21
104.4029835628199976
 31
0.0
  0
LINE
  5
FE7
  8
OVERLAY-A3
 10
4229.0272941857228943
 20
-116.7362607275242965
 30
0.0
 11
5791.9169370892359439
 21
-116.7362607275242965
 31
0.0
  0
LINE
  5
FE8
  8
OVERLAY-A3
 10
5791.9169370892359439
 20
-116.7362607275242965
 30
0.0
 11
5791.9169370892359439
 21
357.826628246832172
 31
0.0
  0
LINE
  5
FE9
  8
OVERLAY-A3
 10
5791.9169370892359439
 20
357.826628246832172
 30
0.0
 11
4229.0272941857228943
 21
357.826628246832172
 31
0.0
  0
TEXT
  5
FEA
  8
OVERLAY-A3
 10
4266.7248286546628151
 20
-76.1162679019634538
 30
0.0
 40
30.0
  1
Scale
 41
1.3701747965659949
  7
SIMPLEX
 72
     5
 11
4417.4440562769232201
 21
-76.1162679019634538
 31
0.0
  0
TEXT
  5
FEB
  8
OVERLAY-A3
 10
5212.2886854011940159
 20
45.3401472600643132
 30
0.0
 40
30.0
  1
Drawing No.
  7
SIMPLEX
 72
     2
 11
5473.7172568297655744
 21
45.3401472600643132
 31
0.0
  0
LINE
  5
FEC
  8
OVERLAY-A3
 10
1576.1105239390610677
 20
-148.0
 30
0.0
 11
5835.0
 21
-148.0
 31
0.0
  0
LINE
  5
FED
  8
OVERLAY-A3
 10
5835.0
 20
-148.0
 30
0.0
 11
5834.999999999998181
 21
3477.5393139767302273
 31
0.0
  0
LINE
  5
FEE
  8
OVERLAY-A3
 10
5834.999999999998181
 20
3477.5393139767302273
 30
0.0
 11
1576.1105239390610677
 21
3481.5393139767302273
 31
0.0
  0
LINE
  5
FEF
  8
OVERLAY-A3
 10
1576.1105239390610677
 20
3481.5393139767302273
 30
0.0
 11
1576.1105239390610677
 21
-148.0
 31
0.0
  0
TEXT
  5
FF0
  8
0
 62
     7
 10
4499.1433054549597728
 20
-73.7899429766430615
 30
0.0
 40
37.5
  1
1:20
  7
TITLE3
  0
LINE
  5
277C
  8
VISIBLE
 10
3434.837452310765002
 20
718.5673544101972539
 30
0.0
 11
3434.837452310765002
 21
1634.1673544101900006
 31
0.0
  0
LINE
  5
277E
  8
VISIBLE
 10
2905.3039643368201723
 20
683.0173544101977541
 30
0.0
 11
2842.0709402847041929
 21
683.0173544101977541
 31
0.0
  0
LINE
  5
277F
  8
VISIBLE
 10
2954.2374523107619098
 20
717.0173544101977541
 30
0.0
 11
2924.1504720862139948
 21
717.0173544101977541
 31
0.0
  0
LINE
  5
2780
  8
VISIBLE
 10
2954.2374523107619098
 20
717.6173544101967536
 30
0.0
 11
2954.2374523107619098
 21
717.0173544101977541
 31
0.0
  0
LINE
  5
2781
  8
VISIBLE
 10
2924.1504720862139948
 20
717.0173544101977541
 30
0.0
 11
2905.3039643368201723
 21
683.0173544101976404
 31
0.0
  0
LINE
  5
2782
  8
VISIBLE
 10
2823.2244325353099157
 20
717.0173544101977541
 30
0.0
 11
2793.1374523107629102
 21
717.0173544101984362
 31
0.0
  0
LINE
  5
2783
  8
VISIBLE
 10
2793.1374523107629102
 20
717.0173544101984362
 30
0.0
 11
2793.1374523107629102
 21
717.6173544101967536
 31
0.0
  0
LINE
  5
2784
  8
VISIBLE
 10
2842.0709402847041929
 20
683.0173544101977541
 30
0.0
 11
2823.2244325353099157
 21
717.0173544101977541
 31
0.0
  0
LINE
  5
2785
  8
VISIBLE
 10
3429.3374523107700043
 20
717.6173544101967536
 30
0.0
 11
2704.8374523109991969
 21
717.6173544101967536
 31
0.0
  0
LINE
  5
2787
  8
VISIBLE
 10
2704.8374523107868299
 20
1648.1673544102220603
 30
0.0
 11
3831.2374523107891946
 21
1648.1673544101740845
 31
0.0
  0
LINE
  5
2788
  8
VISIBLE
 10
3831.2374523107891946
 20
1648.1673544101740845
 30
0.0
 11
3831.2374523108492212
 21
718.5673544101971402
 31
0.0
  0
LINE
  5
278A
  8
VISIBLE
 10
2704.8374523109991969
 20
717.6173544101966399
 30
0.0
 11
2704.8374523107868299
 21
1648.1673544102220603
 31
0.0
  0
LINE
  5
278B
  8
VISIBLE
 10
2704.8374523107900131
 20
1634.1673544102209235
 30
0.0
 11
3831.2374523107891946
 21
1634.1673544101740845
 31
0.0
  0
LINE
  5
278C
  8
VISIBLE
 10
3831.2374523108492212
 20
718.5673544101971402
 30
0.0
 11
3434.837452310765002
 21
718.5673544101972539
 31
0.0
  0
LINE
  5
278D
  8
VISIBLE
 10
3694.0039643368199904
 20
683.017354410197072
 30
0.0
 11
3630.7709402847049205
 21
683.017354410197072
 31
0.0
  0
LINE
  5
278E
  8
VISIBLE
 10
3742.9374523107640016
 20
717.017354410197413
 30
0.0
 11
3712.8504720862129034
 21
717.017354410197072
 31
0.0
  0
LINE
  5
278F
  8
VISIBLE
 10
3742.9374523107640016
 20
718.5673544101975949
 30
0.0
 11
3742.9374523107640016
 21
717.017354410197413
 31
0.0
  0
LINE
  5
2790
  8
VISIBLE
 10
3712.8504720862129034
 20
717.017354410197072
 30
0.0
 11
3694.0039643368199904
 21
683.0173544101968446
 31
0.0
  0
LINE
  5
2791
  8
VISIBLE
 10
3611.924432535312917
 20
717.0173544101975267
 30
0.0
 11
3581.8374523107609093
 21
717.0173544101982088
 31
0.0
  0
LINE
  5
2792
  8
VISIBLE
 10
3581.8374523107609093
 20
717.0173544101982088
 30
0.0
 11
3581.8374523107609093
 21
718.5673544101980497
 31
0.0
  0
LINE
  5
2793
  8
VISIBLE
 10
3630.7709402847049205
 20
683.017354410197072
 30
0.0
 11
3611.924432535312917
 21
717.0173544101975267
 31
0.0
  0
LINE
  5
2794
  8
VISIBLE
 10
3429.3374523107700043
 20
717.6173544101967536
 30
0.0
 11
3429.3374523107709138
 21
1634.1673544101900006
 31
0.0
  0
ARC
  5
2795
  8
VISIBLE
 10
2873.6874523111541748
 20
3197.9411106341281084
 30
0.0
 40
5.9999999999999929
 50
318.1896851042114918
 51
0.0
  0
ARC
  5
2796
  8
VISIBLE
 10
2873.6874523111541748
 20
3197.9411106341281084
 30
0.0
 40
5.9999999999999538
 50
180.0
 51
221.8103148957885082
  0
ARC
  5
2797
  8
VISIBLE
 10
2873.6853098802162094
 20
2795.9256467134650848
 30
0.0
 40
5.9888142147678867
 50
179.8520544565876094
 51
0.1479455434124414
  0
LINE
  5
2798
  8
VISIBLE
 10
2843.7202663310740718
 20
3207.9411106341281084
 30
0.0
 11
2867.6874523111541748
 21
3207.9411106341281084
 31
0.0
  0
LINE
  5
2799
  8
VISIBLE
 10
2906.1035734712249905
 20
2785.9411106341299273
 30
0.0
 11
2841.2713311510819949
 21
2785.9411106341299273
 31
0.0
  0
LINE
  5
279A
  8
VISIBLE
 10
2879.6874523111528106
 20
3207.9411106341281084
 30
0.0
 11
2903.6546382912329136
 21
3207.9411106341281084
 31
0.0
  0
LINE
  5
279B
  8
VISIBLE
 10
2913.7981208777091524
 20
2798.3411106344137806
 30
0.0
 11
2906.1035734712249905
 21
2785.9411106341299273
 31
0.0
  0
LINE
  5
279C
  8
VISIBLE
 10
2832.5839389182169725
 20
3193.9411106341331106
 30
0.0
 11
2841.2713311510819949
 21
3207.9411106341281084
 31
0.0
  0
LINE
  5
279D
  8
VISIBLE
 10
2842.6269916971491512
 20
3207.9411106341299273
 30
0.0
 11
2841.2713311510819949
 21
3207.9411106341281084
 31
0.0
  0
LINE
  5
279E
  8
VISIBLE
 10
2906.1035734712231715
 20
3207.9411106341281084
 30
0.0
 11
2914.7909657041800529
 21
3193.9411106341640334
 31
0.0
  0
LINE
  5
279F
  8
VISIBLE
 10
2904.7479129251578343
 20
3207.9411106341299273
 30
0.0
 11
2906.1035734712231715
 21
3207.9411106341281084
 31
0.0
  0
LINE
  5
27A0
  8
VISIBLE
 10
2841.2713311510819949
 20
2785.9411106341299273
 30
0.0
 11
2833.4736283319871291
 21
2798.3411106344137806
 31
0.0
  0
LINE
  5
27A1
  8
VISIBLE
 10
2842.6269916971491512
 20
3207.9411106341299273
 30
0.0
 11
2843.7202663310740718
 21
3207.9411106341299273
 31
0.0
  0
LINE
  5
27A2
  8
VISIBLE
 10
2903.6546382912329136
 20
3207.9411106341281084
 30
0.0
 11
2904.7479129251578343
 21
3207.9411106341281084
 31
0.0
  0
LINE
  5
27A3
  8
VISIBLE
 10
3831.2374523111780036
 20
2879.9439983416209543
 30
0.0
 11
3749.6345646039731037
 21
2798.3411106344137806
 31
0.0
  0
LINE
  5
27A4
  8
VISIBLE
 10
3831.2374523111780036
 20
3193.9411106344141444
 30
0.0
 11
3831.2374523111780036
 21
2879.9439983416209543
 31
0.0
  0
LINE
  5
27A5
  8
VISIBLE
 10
2786.4403400183869053
 20
2798.3411106344137806
 30
0.0
 11
2704.8374523111788221
 21
2879.9439983416200448
 31
0.0
  0
LINE
  5
27A6
  8
VISIBLE
 10
2704.8374523111788221
 20
2879.9439983416200448
 30
0.0
 11
2704.8374523111788221
 21
3193.9411106344141444
 31
0.0
  0
LINE
  5
27A7
  8
VISIBLE
 10
2704.8374523111788221
 20
3193.9411106344141444
 30
0.0
 11
3831.2374523111780036
 21
3193.9411106344141444
 31
0.0
  0
LINE
  5
27A8
  8
VISIBLE
 10
3749.6345646039731037
 20
2798.3411106344137806
 30
0.0
 11
2786.4403400183869053
 21
2798.3411106344137806
 31
0.0
  0
ARC
  5
27A9
  8
VISIBLE
 10
3662.3874523111549024
 20
3197.9411106341281084
 30
0.0
 40
5.9999999999999742
 50
318.1896851042114918
 51
0.0
  0
ARC
  5
27AA
  8
VISIBLE
 10
3662.3874523111539929
 20
3197.9411106341281084
 30
0.0
 40
5.9999999999999742
 50
180.0
 51
221.8103148957885082
  0
ARC
  5
27AB
  8
VISIBLE
 10
3662.3874523111549024
 20
2795.9411106341281084
 30
0.0
 40
6.0000000000000151
 50
180.0
 51
0.0
  0
LINE
  5
27AC
  8
VISIBLE
 10
3632.4202663310738899
 20
3207.9411106341281084
 30
0.0
 11
3656.3874523111539929
 21
3207.9411106341281084
 31
0.0
  0
LINE
  5
27AD
  8
VISIBLE
 10
3692.3546382912359149
 20
2785.9411106341281084
 30
0.0
 11
3632.4202663310738899
 21
2785.9411106341281084
 31
0.0
  0
LINE
  5
27AE
  8
VISIBLE
 10
3668.3874523111549024
 20
3207.9411106341281084
 30
0.0
 11
3692.3546382912359149
 21
3207.9411106341281084
 31
0.0
  0
LINE
  5
27AF
  8
VISIBLE
 10
3702.4981208775438972
 20
2798.341110634134111
 30
0.0
 11
3694.8035734712248086
 21
2785.9411106341281084
 31
0.0
  0
LINE
  5
27B0
  8
VISIBLE
 10
3694.8035734712248086
 20
2785.9411106341281084
 30
0.0
 11
3693.4479129251581071
 21
2785.9411106341299273
 31
0.0
  0
LINE
  5
27B1
  8
VISIBLE
 10
3621.2839389182158811
 20
3193.9411106341331106
 30
0.0
 11
3629.9713311510849962
 21
3207.9411106341281084
 31
0.0
  0
LINE
  5
27B2
  8
VISIBLE
 10
3631.3269916971489693
 20
3207.9411106341299273
 30
0.0
 11
3629.9713311510849962
 21
3207.9411106341281084
 31
0.0
  0
LINE
  5
27B3
  8
VISIBLE
 10
3694.8035734712248086
 20
3207.9411106341281084
 30
0.0
 11
3703.490965704179871
 21
3193.9411106341640334
 31
0.0
  0
LINE
  5
27B4
  8
VISIBLE
 10
3693.4479129251581071
 20
3207.9411106341299273
 30
0.0
 11
3694.8035734712248086
 21
3207.9411106341281084
 31
0.0
  0
LINE
  5
27B5
  8
VISIBLE
 10
3629.9713311510849962
 20
2785.9411106341281084
 30
0.0
 11
3622.2767837448018327
 21
2798.3411106340258812
 31
0.0
  0
LINE
  5
27B6
  8
VISIBLE
 10
3629.9713311510849962
 20
2785.9411106341281084
 30
0.0
 11
3631.3269916971489693
 21
2785.9411106341299273
 31
0.0
  0
LINE
  5
27B7
  8
VISIBLE
 10
3631.3269916971489693
 20
3207.9411106341299273
 30
0.0
 11
3632.4202663310738899
 21
3207.9411106341299273
 31
0.0
  0
LINE
  5
27B8
  8
VISIBLE
 10
3632.4202663310738899
 20
2785.9411106341281084
 30
0.0
 11
3631.3269916971489693
 21
2785.9411106341281084
 31
0.0
  0
LINE
  5
27B9
  8
VISIBLE
 10
3692.3546382912359149
 20
3207.9411106341299273
 30
0.0
 11
3693.4479129251581071
 21
3207.9411106341299273
 31
0.0
  0
LINE
  5
27BA
  8
VISIBLE
 10
3693.4479129251581071
 20
2785.9411106341281084
 30
0.0
 11
3692.3546382912359149
 21
2785.9411106341281084
 31
0.0
  0
LINE
  5
27BC
  8
VISIBLE
 10
4686.1868464432645851
 20
718.5673544101971402
 30
0.0
 11
4686.1868464432645851
 21
1634.1673544101729476
 31
0.0
  0
LINE
  5
27BE
  8
VISIBLE
 10
4406.1866894126405896
 20
717.6173544101976631
 30
0.0
 11
4394.5866894129430875
 21
717.6173544101957305
 31
0.0
  0
LINE
  5
27BF
  8
VISIBLE
 10
4709.1866894126369516
 20
718.5673544101971402
 30
0.0
 11
4709.1866894126387706
 21
1634.1673544101729476
 31
0.0
  0
LINE
  5
27C0
  8
VISIBLE
 10
4710.6866894126396801
 20
1634.1673544101729476
 30
0.0
 11
4710.6866894126396801
 21
718.5673544101971402
 31
0.0
  0
LINE
  5
27C1
  8
VISIBLE
 10
4394.5866894126411353
 20
1648.1673544101740845
 30
0.0
 11
4790.1866894126405896
 21
1648.1673544101740845
 31
0.0
  0
LINE
  5
27C3
  8
VISIBLE
 10
4790.1866894126405896
 20
1648.1673544101740845
 30
0.0
 11
4790.1866894126405896
 21
1634.1673544101740845
 31
0.0
  0
LINE
  5
27C4
  8
VISIBLE
 10
4394.5866894129430875
 20
717.6173544101958441
 30
0.0
 11
4394.5866894126411353
 21
1648.1673544101740845
 31
0.0
  0
LINE
  5
27C5
  8
VISIBLE
 10
4394.5866894126456828
 20
1634.1673544101729476
 30
0.0
 11
4790.1866894126405896
 21
1634.1673544101740845
 31
0.0
  0
LINE
  5
27C6
  8
VISIBLE
 10
4789.9586145465118534
 20
718.5673544101971402
 30
0.0
 11
4479.2340468032898571
 21
718.5673544101971402
 31
0.0
  0
LINE
  5
27C7
  8
VISIBLE
 10
4479.2340468032898571
 20
718.5673544101971402
 30
0.0
 11
4394.5866894129430875
 21
718.5673544102512551
 31
0.0
  0
LINE
  5
27C8
  8
VISIBLE
 10
4804.1866894126433181
 20
683.0173544101968446
 30
0.0
 11
4382.1866894126405896
 21
683.0173544101968446
 31
0.0
  0
LINE
  5
27C9
  8
VISIBLE
 10
4804.1866894126433181
 20
683.0173544101968446
 30
0.0
 11
4804.1866894126433181
 21
684.459887473507365
 31
0.0
  0
LINE
  5
27CA
  8
VISIBLE
 10
4382.1866894126405896
 20
683.0173544101968446
 30
0.0
 11
4382.1866894126405896
 21
684.459887473507365
 31
0.0
  0
LINE
  5
27CB
  8
VISIBLE
 10
4406.1866894126405896
 20
718.5673544101972539
 30
0.0
 11
4406.1866894126405896
 21
717.017354410197072
 31
0.0
  0
LINE
  5
27CC
  8
VISIBLE
 10
4406.1866894126405896
 20
717.017354410197072
 30
0.0
 11
4406.1866894126378611
 21
712.0784345969340166
 31
0.0
  0
LINE
  5
27CD
  8
VISIBLE
 10
4382.1866894126405896
 20
685.2113423848892353
 30
0.0
 11
4406.1866894126378611
 21
712.0784345969340166
 31
0.0
  0
LINE
  5
27CE
  8
VISIBLE
 10
4382.1866894126405896
 20
684.459887473507365
 30
0.0
 11
4382.1866894126405896
 21
685.2113423848892353
 31
0.0
  0
LINE
  5
27CF
  8
VISIBLE
 10
4780.1866894126433181
 20
717.017354410197072
 30
0.0
 11
4780.1866894126433181
 21
718.5673544101972539
 31
0.0
  0
LINE
  5
27D0
  8
VISIBLE
 10
4780.1866894126396801
 20
712.0784345969417473
 30
0.0
 11
4780.1866894126433181
 21
717.0173544101968446
 31
0.0
  0
LINE
  5
27D1
  8
VISIBLE
 10
4804.1866894126433181
 20
685.2113423848892353
 30
0.0
 11
4804.1866894126433181
 21
684.459887473507365
 31
0.0
  0
LINE
  5
27D2
  8
VISIBLE
 10
4780.1866894126396801
 20
712.0784345969417473
 30
0.0
 11
4804.1866894126433181
 21
685.2113423848892353
 31
0.0
  0
LINE
  5
27D3
  8
VISIBLE
 10
4780.1866894126433181
 20
717.017354410197072
 30
0.0
 11
4406.1866894126405896
 21
717.017354410197072
 31
0.0
  0
LINE
  5
27D4
  8
VISIBLE
 10
4789.9586145465118534
 20
1634.1673544101729476
 30
0.0
 11
4789.9586145465118534
 21
718.5673544101971402
 31
0.0
  0
LINE
  5
27D5
  8
VISIBLE
 10
4690.6866894126405896
 20
1634.1673544101729476
 30
0.0
 11
4690.6866894126405896
 21
718.5673544101971402
 31
0.0
  0
CIRCLE
  5
27D6
  8
0
 10
3106.1374523107620007
 20
1182.7673544101969583
 30
0.0
 40
290.0
  0
LINE
  5
27D7
  8
0
 10
3434.837452310765002
 20
718.5673544101972539
 30
0.0
 11
3429.3374523107700043
 21
718.5673544101972539
 31
0.0
  0
LINE
  5
27D8
  8
0
 10
2867.6965156304390803
 20
2795.9411106341299273
 30
0.0
 11
2867.6965156304390803
 21
2798.3411106344137806
 31
0.0
  0
LINE
  5
27D9
  8
0
 10
2879.6741041299928838
 20
2795.9411106341299273
 30
0.0
 11
2879.6741041299928838
 21
2798.3411106344137806
 31
0.0
  0
LINE
  5
27DA
  8
0
 10
3656.3874523111539929
 20
2795.9411106341281084
 30
0.0
 11
3656.3874523111539929
 21
2798.3411106344137806
 31
0.0
  0
LINE
  5
27DB
  8
0
 10
3668.3874523111549024
 20
2795.9411106341281084
 30
0.0
 11
3668.3874523111530834
 21
2798.3411106344137806
 31
0.0
  0
LINE
  5
27DC
  8
0
 10
2867.6874523111541748
 20
3197.9411106341281084
 30
0.0
 11
2867.6874523111541748
 21
3207.9411106341281084
 31
0.0
  0
LINE
  5
27DD
  8
0
 10
2879.6874523111541748
 20
3197.9411106341281084
 30
0.0
 11
2879.6874523111528106
 21
3207.9411106341281084
 31
0.0
  0
LINE
  5
27DE
  8
0
 10
3656.3874523111539929
 20
3197.9411106341281084
 30
0.0
 11
3656.3874523111539929
 21
3207.9411106341281084
 31
0.0
  0
LINE
  5
27DF
  8
0
 10
3668.3874523111549024
 20
3197.9411106341281084
 30
0.0
 11
3668.3874523111549024
 21
3207.9411106341281084
 31
0.0
  0
LINE
  5
27F5
  8
OVERLAY-A3
 10
2704.8374457891031852
 20
1668.1673546244710451
 30
0.0
 11
2704.8374457891031852
 21
1738.3321626193710472
 31
0.0
  0
LINE
  5
27F6
  8
OVERLAY-A3
 10
3831.2374457891028214
 20
1668.1673546244710451
 30
0.0
 11
3831.2374457891028214
 21
1738.3321626193710472
 31
0.0
  0
LINE
  5
27F7
  8
OVERLAY-A3
 10
2749.8374457891031852
 20
1708.3321626193719567
 30
0.0
 11
3087.2689294626770788
 21
1708.3321626193719567
 31
0.0
  0
LINE
  5
27F8
  8
OVERLAY-A3
 10
3786.2374457891010024
 20
1708.3321626193719567
 30
0.0
 11
3462.2689294626798073
 21
1708.3321626193719567
 31
0.0
  0
SOLID
  5
27F9
  8
OVERLAY-A3
 10
2749.8374457891031852
 20
1715.8321626193710472
 30
0.0
 11
2749.8374457891031852
 21
1700.8321626193710472
 31
0.0
 12
2704.8374457891031852
 22
1708.3321626193719567
 32
0.0
 13
2704.8374457891031852
 23
1708.3321626193719567
 33
0.0
  0
SOLID
  5
27FA
  8
OVERLAY-A3
 10
3786.2374457891010024
 20
1715.8321626193710472
 30
0.0
 11
3786.2374457891010024
 21
1700.8321626193710472
 31
0.0
 12
3831.2374457891028214
 22
1708.3321626193719567
 32
0.0
 13
3831.2374457891028214
 23
1708.3321626193719567
 33
0.0
  0
TEXT
  5
27FB
  8
OVERLAY-A3
 10
3117.2689294626770788
 20
1694.4140003419040568
 30
0.0
 40
45.0
  1
1126 O/A
  0
LINE
  5
280D
  8
OVERLAY-A3
 10
2684.8374523107868299
 20
1648.1673544102020514
 30
0.0
 11
2544.7332498446357931
 21
1648.1673544101970492
 31
0.0
  0
LINE
  5
280E
  8
OVERLAY-A3
 10
2574.7332498446357931
 20
1607.1673544101970492
 30
0.0
 11
2574.7332498446357931
 21
1348.5173544101969583
 31
0.0
  0
LINE
  5
280F
  8
OVERLAY-A3
 10
2574.7332498446357931
 20
728.017354410197072
 30
0.0
 11
2574.7332498446357931
 21
987.5173544101971856
 31
0.0
  0
SOLID
  5
2810
  8
OVERLAY-A3
 10
2567.2332498446357931
 20
1607.1673544101970492
 30
0.0
 11
2582.2332498446357931
 21
1607.1673544101970492
 31
0.0
 12
2574.7332498446357931
 22
1648.1673544101970492
 32
0.0
 13
2574.7332498446357931
 23
1648.1673544101970492
 33
0.0
  0
SOLID
  5
2811
  8
OVERLAY-A3
 10
2567.2332498446357931
 20
728.017354410197072
 30
0.0
 11
2582.2332498446357931
 21
728.017354410197072
 31
0.0
 12
2574.7332498446357931
 22
683.017354410197072
 32
0.0
 13
2574.7332498446357931
 23
683.017354410197072
 33
0.0
  0
LINE
  5
2812
  8
OVERLAY-A3
 10
2822.0709402847041929
 20
683.017354410197072
 30
0.0
 11
2544.7332498446348836
 21
683.017354410197072
 31
0.0
  0
TEXT
  5
2813
  8
OVERLAY-A3
 10
2597.2332498446348836
 20
1018.5173544101969583
 30
0.0
 40
45.0
  1
965 O/A
 50
90.0
  0
LINE
  5
2826
  8
OVERLAY-A3
 10
2706.7451687573870913
 20
697.6173544101967536
 30
0.0
 11
2706.7451687573870913
 21
595.6154760894141873
 31
0.0
  0
LINE
  5
2827
  8
OVERLAY-A3
 10
2661.7451687573889103
 20
625.6154760894140736
 30
0.0
 11
2616.7451687573880008
 21
625.6154760894140736
 31
0.0
  0
SOLID
  5
2829
  8
OVERLAY-A3
 10
2661.7451687573889103
 20
633.1154760894141873
 30
0.0
 11
2661.7451687573889103
 21
618.1154760894139599
 31
0.0
 12
2706.7451687573870913
 22
625.6154760894140736
 32
0.0
 13
2706.7451687573870913
 23
625.6154760894140736
 33
0.0
  0
SOLID
  5
282A
  8
OVERLAY-A3
 10
2918.6874523107640016
 20
633.1154760894141873
 30
0.0
 11
2918.6874523107640016
 21
618.1154760894140736
 31
0.0
 12
2873.6874523107630921
 22
625.6154760894140736
 32
0.0
 13
2873.6874523107630921
 23
625.6154760894140736
 33
0.0
  0
LINE
  5
282B
  8
OVERLAY-A3
 10
2873.6874523107630921
 20
663.017354410197072
 30
0.0
 11
2873.6874523107630921
 21
595.6154760894141873
 31
0.0
  0
LINE
  5
282C
  8
OVERLAY-A3
 10
3662.3874523107620007
 20
663.017354410197072
 30
0.0
 11
3662.3874523107620007
 21
595.6154760894141873
 31
0.0
  0
LINE
  5
282D
  8
OVERLAY-A3
 10
2918.6874523107640016
 20
625.6154760894140736
 30
0.0
 11
3070.7606736399679903
 21
625.6154760894140736
 31
0.0
  0
LINE
  5
282E
  8
OVERLAY-A3
 10
3617.3874523107629102
 20
625.6154760894140736
 30
0.0
 11
3475.7606736399670808
 21
625.6154760894140736
 31
0.0
  0
SOLID
  5
282F
  8
OVERLAY-A3
 10
2918.6874523107640016
 20
633.1154760894141873
 30
0.0
 11
2918.6874523107640016
 21
618.1154760894140736
 31
0.0
 12
2873.6874523107630921
 22
625.6154760894140736
 32
0.0
 13
2873.6874523107630921
 23
625.6154760894140736
 33
0.0
  0
SOLID
  5
2830
  8
OVERLAY-A3
 10
3617.3874523107629102
 20
633.1154760894141873
 30
0.0
 11
3617.3874523107629102
 21
618.1154760894140736
 31
0.0
 12
3662.3874523107620007
 22
625.6154760894140736
 32
0.0
 13
3662.3874523107620007
 23
625.6154760894140736
 33
0.0
  0
TEXT
  5
2831
  8
OVERLAY-A3
 10
2741.0116691504899791
 20
603.4743308388046898
 30
0.0
 40
45.0
  1
169
  0
TEXT
  5
2832
  8
OVERLAY-A3
 10
3100.7606736399679903
 20
601.3415644263703825
 30
0.0
 40
45.0
  1
789 CTRS
  0
TEXT
  5
2843
  8
OUTLINE
 10
3448.980472592615115
 20
1196.7702220849168953
 30
0.0
 40
60.0
  1
OSA 171
  7
TITLE5
  0
TEXT
  5
2844
  8
OUTLINE
 10
3500.4090440211848545
 20
1096.7702220849150763
 30
0.0
 40
60.0
  1
RLTFH
  7
TITLE5
  0
LINE
  5
2854
  8
OVERLAY-A3
 10
4804.1866894126433181
 20
663.0173544101968446
 30
0.0
 11
4804.1866894126433181
 21
545.4574181035995935
 31
0.0
  0
LINE
  5
2855
  8
OVERLAY-A3
 10
4382.186689412646956
 20
663.0173544101968446
 30
0.0
 11
4382.186689412646956
 21
545.4574181035995935
 31
0.0
  0
LINE
  5
2856
  8
OVERLAY-A3
 10
4849.1866894126405896
 20
575.4574181035993661
 30
0.0
 11
4894.1866894126442276
 21
575.4574181035993661
 31
0.0
  0
LINE
  5
2857
  8
OVERLAY-A3
 10
4337.1866894126460465
 20
575.4574181035993661
 30
0.0
 11
4292.186689412646956
 21
575.4574181035993661
 31
0.0
  0
SOLID
  5
2858
  8
OVERLAY-A3
 10
4849.1866894126405896
 20
582.9574181035995935
 30
0.0
 11
4849.1866894126405896
 21
567.9574181035992524
 31
0.0
 12
4804.1866894126433181
 22
575.4574181035993661
 32
0.0
 13
4804.1866894126433181
 23
575.4574181035993661
 33
0.0
  0
SOLID
  5
2859
  8
OVERLAY-A3
 10
4337.1866894126460465
 20
582.9574181035995935
 30
0.0
 11
4337.1866894126460465
 21
567.9574181035992524
 31
0.0
 12
4382.186689412646956
 22
575.4574181035993661
 32
0.0
 13
4382.186689412646956
 23
575.4574181035993661
 33
0.0
  0
INSERT
  5
285A
  8
OUTLINE
  2
*U4
 10
386.5914363456412843
 20
6163.6146477252968907
 30
0.0
 50
270.0
  0
LINE
  5
2866
  8
OVERLAY-A3
 10
4790.1866894126442276
 20
1668.1673544101740845
 30
0.0
 11
4790.1866894126442276
 21
1784.723345117441113
 31
0.0
  0
LINE
  5
2867
  8
OVERLAY-A3
 10
4394.5866894126411353
 20
1668.1673544101740845
 30
0.0
 11
4394.5866894126411353
 21
1784.723345117441113
 31
0.0
  0
LINE
  5
2868
  8
OVERLAY-A3
 10
4745.186689412646956
 20
1754.7233451174420225
 30
0.0
 11
4680.5866894126447733
 21
1754.7233451174420225
 31
0.0
  0
LINE
  5
2869
  8
OVERLAY-A3
 10
4439.5866894126438638
 20
1754.7233451174420225
 30
0.0
 11
4500.5866894126447733
 21
1754.7233451174420225
 31
0.0
  0
SOLID
  5
286A
  8
OVERLAY-A3
 10
4745.186689412646956
 20
1762.2233451174420225
 30
0.0
 11
4745.186689412646956
 21
1747.2233451174420225
 31
0.0
 12
4790.1866894126442276
 22
1754.7233451174420225
 32
0.0
 13
4790.1866894126442276
 23
1754.7233451174420225
 33
0.0
  0
SOLID
  5
286B
  8
OVERLAY-A3
 10
4439.5866894126438638
 20
1762.2233451174420225
 30
0.0
 11
4439.5866894126438638
 21
1747.2233451174420225
 31
0.0
 12
4394.5866894126411353
 22
1754.7233451174420225
 32
0.0
 13
4394.5866894126411353
 23
1754.7233451174420225
 33
0.0
  0
TEXT
  5
286C
  8
OVERLAY-A3
 10
4530.5866894126456828
 20
1732.223345117441113
 30
0.0
 40
45.0
  1
396
  0
LINE
  5
2881
  8
0
 62
     7
 10
4755.9724612272539161
 20
1147.8347524247999445
 30
0.0
 11
4723.7992286000617241
 21
1176.3673544101850439
 31
0.0
  0
LINE
  5
2882
  8
0
 62
     7
 10
4773.4382620662636327
 20
1166.3173804326579557
 30
0.0
 11
4755.9724612272502782
 21
1166.3173804326579557
 31
0.0
  0
LINE
  5
2883
  8
0
 62
     7
 10
4755.9724612272502782
 20
1166.3173804326579557
 30
0.0
 11
4755.9724612272539161
 21
1147.8347524247999445
 31
0.0
  0
LINE
  5
2884
  8
0
 62
     7
 10
4755.9724612272539161
 20
1204.8999563955680969
 30
0.0
 11
4723.7992286000617241
 21
1176.3673544101850439
 31
0.0
  0
LINE
  5
2885
  8
0
 62
     7
 10
4773.4382620662636327
 20
1186.4173283877119047
 30
0.0
 11
4755.9724612272502782
 21
1186.4173283877119047
 31
0.0
  0
LINE
  5
2886
  8
0
 62
     7
 10
4755.9724612272502782
 20
1186.4173283877119047
 30
0.0
 11
4755.9724612272539161
 21
1204.8999563955680969
 31
0.0
  0
LINE
  5
2887
  8
OUTLINE
 10
4773.4382620662636327
 20
1186.4173283877119047
 30
0.0
 11
4773.4382620662636327
 21
1166.3173804326579557
 31
0.0
  0
TEXT
  5
2897
  8
OUTLINE
 10
4571.5606837955765513
 20
846.8575282328722551
 30
0.0
 40
60.0
  1
OSA 171RLTFH
 50
90.0
  7
TITLE5
  0
TEXT
  5
28AA
  8
OVERLAY-A3
 10
3145.6466149766711169
 20
3363.6082505837148346
 30
0.0
 40
45.0
  1
150 mm MIN CLEARANCE
  0
TEXT
  5
28AB
  8
OVERLAY-A3
 10
2842.5622922951451983
 20
2345.7151786943741172
 30
0.0
 40
45.0
  1
500 mm MIN CLEARANCE
  0
TEXT
  5
28AC
  8
OVERLAY-A3
 10
2451.3489773968481131
 20
2883.5499190715049735
 30
0.0
 40
45.0
  1
150 mm MIN
 50
90.0
  0
TEXT
  5
28AD
  8
OVERLAY-A3
 10
2528.4918345397049961
 20
2886.8020441664020836
 30
0.0
 40
45.0
  1
CLEARANCE
 50
90.0
  0
TEXT
  5
28AE
  8
OVERLAY-A3
 10
4465.6100313006099896
 20
2862.9474385253861328
 30
0.0
 40
45.0
  1
750 mm MIN
 50
90.0
  0
TEXT
  5
28AF
  8
OVERLAY-A3
 10
4542.752888443469601
 20
2878.143643260304998
 30
0.0
 40
45.0
  1
CLEARANCE
 50
90.0
  0
LINE
  5
28B0
  8
0
  6
PHANTOM
 62
     7
 10
2554.8374523111810959
 20
3342.5806007048081483
 30
0.0
 11
2554.8374523111829149
 21
2799.5806007048090578
 31
0.0
  0
LINE
  5
28B1
  8
0
  6
PHANTOM
 62
     7
 10
2554.8374523111810959
 20
3342.5806007048081483
 30
0.0
 11
4581.2374523111775488
 21
3342.5806007048081483
 31
0.0
  0
LINE
  5
28B2
  8
0
  6
PHANTOM
 62
     7
 10
4581.2374523111775488
 20
3342.5806007048081483
 30
0.0
 11
4581.2374523111775488
 21
2799.5806007048090578
 31
0.0
  0
LINE
  5
28B3
  8
0
  6
PHANTOM
 62
     7
 10
2704.8374523111801864
 20
2298.3406007048079118
 30
0.0
 11
3831.2374523111830058
 21
2298.3406007048079118
 31
0.0
  0
LINE
  5
28B4
  8
0
  6
PHANTOM
 62
     7
 10
2704.8374523111801864
 20
2774.5806007048090578
 30
0.0
 11
2704.8374523111801864
 21
2298.3406007048079118
 31
0.0
  0
LINE
  5
28B5
  8
0
  6
PHANTOM
 62
     7
 10
3831.2374523111830058
 20
2774.5806007048099673
 30
0.0
 11
3831.2374523111830058
 21
2298.3406007048079118
 31
0.0
  0
LINE
  5
28B6
  8
0
  6
PHANTOM
 62
     7
 10
4049.751519305084912
 20
2799.5806007048090578
 30
0.0
 11
4581.2374523111775488
 21
2799.5806007048090578
 31
0.0
  0
LINE
  5
28B7
  8
0
  6
PHANTOM
 62
     7
 10
2679.8374523111810959
 20
2799.5806007048090578
 30
0.0
 11
2554.8374523111829149
 21
2799.5806007048090578
 31
0.0
  0
LINE
  5
28C3
  8
0
 62
     7
 10
3296.5700542965651039
 20
3135.3332955824412238
 30
0.0
 11
3268.0374523111800045
 21
3103.160062955252215
 31
0.0
  0
LINE
  5
28C4
  8
0
 62
     7
 10
3257.9874783336517794
 20
3152.7990964214518499
 30
0.0
 11
3278.0874262887077748
 21
3152.7990964214518499
 31
0.0
  0
LINE
  5
28C5
  8
0
 62
     7
 10
3278.0874262887077748
 20
3152.7990964214518499
 30
0.0
 11
3278.0874262887077748
 21
3135.3332955824380406
 31
0.0
  0
LINE
  5
28C6
  8
0
 62
     7
 10
3278.0874262887077748
 20
3135.3332955824380406
 30
0.0
 11
3296.5700542965651039
 21
3135.3332955824412238
 31
0.0
  0
LINE
  5
28C7
  8
0
 62
     7
 10
3239.5048503257958146
 20
3135.3332955824412238
 30
0.0
 11
3268.0374523111800045
 21
3103.160062955252215
 31
0.0
  0
LINE
  5
28C8
  8
0
 62
     7
 10
3257.9874783336517794
 20
3152.7990964214518499
 30
0.0
 11
3257.9874783336517794
 21
3135.3332955824380406
 31
0.0
  0
LINE
  5
28C9
  8
0
 62
     7
 10
3257.9874783336517794
 20
3135.3332955824380406
 30
0.0
 11
3239.5048503257958146
 21
3135.3332955824412238
 31
0.0
  0
LINE
  5
28D5
  8
0
 62
     7
 10
3296.5700542965651039
 20
2863.3177627948830377
 30
0.0
 11
3268.0374523111800045
 21
2831.1445301676940289
 31
0.0
  0
LINE
  5
28D6
  8
0
 62
     7
 10
3257.9874783336517794
 20
2880.783563633893209
 30
0.0
 11
3278.0874262887077748
 21
2880.783563633893209
 31
0.0
  0
LINE
  5
28D7
  8
0
 62
     7
 10
3278.0874262887077748
 20
2880.783563633893209
 30
0.0
 11
3278.0874262887077748
 21
2863.317762794878945
 31
0.0
  0
LINE
  5
28D8
  8
0
 62
     7
 10
3278.0874262887077748
 20
2863.317762794878945
 30
0.0
 11
3296.5700542965651039
 21
2863.3177627948830377
 31
0.0
  0
LINE
  5
28D9
  8
0
 62
     7
 10
3239.5048503257958146
 20
2863.3177627948830377
 30
0.0
 11
3268.0374523111800045
 21
2831.1445301676940289
 31
0.0
  0
LINE
  5
28DA
  8
0
 62
     7
 10
3257.9874783336517794
 20
2880.783563633893209
 30
0.0
 11
3257.9874783336517794
 21
2863.317762794878945
 31
0.0
  0
LINE
  5
28DB
  8
0
 62
     7
 10
3257.9874783336517794
 20
2863.317762794878945
 30
0.0
 11
3239.5048503257958146
 21
2863.3177627948830377
 31
0.0
  0
LINE
  5
28E7
  8
OVERLAY-A3
 10
3662.3874523111539929
 20
3197.9411106341281084
 30
0.0
 11
4029.7515193051131064
 21
3197.9411106341281084
 31
0.0
  0
LINE
  5
28E8
  8
OVERLAY-A3
 10
3662.3874523111549024
 20
2795.9411106341281084
 30
0.0
 11
4029.7515193051131064
 21
2795.9411106341281084
 31
0.0
  0
LINE
  5
28E9
  8
OVERLAY-A3
 10
4002.2515193051121969
 20
3242.9411106341290179
 30
0.0
 11
4002.2515193051121969
 21
3287.9411106341281084
 31
0.0
  0
LINE
  5
28EA
  8
OVERLAY-A3
 10
4002.2515193051131064
 20
2750.9411106341290179
 30
0.0
 11
4002.2515193051131064
 21
2705.9411106341322011
 31
0.0
  0
SOLID
  5
28EB
  8
OVERLAY-A3
 10
3994.7515193051131064
 20
3242.9411106341290179
 30
0.0
 11
4009.7515193051131064
 21
3242.9411106341290179
 31
0.0
 12
4002.2515193051121969
 22
3197.9411106341281084
 32
0.0
 13
4002.2515193051121969
 23
3197.9411106341281084
 33
0.0
  0
SOLID
  5
28EC
  8
OVERLAY-A3
 10
3994.7515193051140159
 20
2750.9411106341290179
 30
0.0
 11
4009.7515193051140159
 21
2750.9411106341290179
 31
0.0
 12
4002.2515193051131064
 22
2795.9411106341281084
 32
0.0
 13
4002.2515193051131064
 23
2795.9411106341281084
 33
0.0
  0
TEXT
  5
28ED
  8
OVERLAY-A3
 10
4024.7515193051131064
 20
2822.1112427561461118
 30
0.0
 40
45.0
  1
402 CTRS
 50
90.0
  0
TEXT
  5
28F3
  8
OUTLINE
 10
2964.934991374629135
 20
2976.0946947158467992
 30
0.0
 40
60.0
  1
OSA 171RLTFH
  7
TITLE5
  0
TEXT
  5
28FF
  8
0
 62
     7
 10
1710.4230606800570058
 20
-3.196823850016548
 30
0.0
 40
33.5999999999967329
  1
available on request
  7
TITLE3
  0
TEXT
  5
2900
  8
0
 62
     7
 10
1710.4230606800570058
 20
54.4031761499777531
 30
0.0
 40
33.5999999999967329
  1
Certified dimensions
  7
TITLE3
  0
TEXT
  5
2901
  8
0
 62
     7
 10
1710.4230606800570058
 20
112.0031761499721057
 30
0.0
 40
33.5999999999967329
  1
without notice or obligation.
  7
TITLE3
  0
TEXT
  5
2902
  8
0
 62
     7
 10
1710.4230606800570058
 20
169.6031761499664015
 30
0.0
 40
33.5999999999967329
  1
specifications at any time
  7
TITLE3
  0
TEXT
  5
2903
  8
0
 62
     7
 10
1710.4230606800570058
 20
227.2031761499609104
 30
0.0
 40
33.5999999999967329
  1
the right to change 
  7
TITLE3
  0
TEXT
  5
2904
  8
0
 62
     7
 10
1710.4230606800570058
 20
342.4031761499492745
 30
0.0
 40
33.5999999999967329
  1
NOTE
  7
TITLE3
  0
TEXT
  5
2905
  8
0
 62
     7
 10
1710.4230606800570058
 20
284.8031761499552204
 30
0.0
 40
33.5999999999967329
  1
The manufacturer reserves
  7
TITLE3
  0
ENDSEC
  0
EOF
