  0
SECTION
  2
HEADER
  9
$ACADVER
  1
AC1009
  9
$INSBASE
 10
0.0
 20
0.0
 30
0.0
  9
$EXTMIN
 10
671.2054651138178087
 20
-0.081349616884836
 30
-0.000000000000013
  9
$EXTMAX
 10
3890.1187858377497832
 20
2668.5962030626251362
 30
0.0000000000000023
  9
$LIMMIN
 10
0.0
 20
0.0
  9
$LIMMAX
 10
3890.0
 20
2660.0
  9
$ORTHOMODE
 70
     1
  9
$REGENMODE
 70
     1
  9
$FILLMODE
 70
     1
  9
$QTEXTMODE
 70
     0
  9
$MIRRTEXT
 70
     0
  9
$DRAGMODE
 70
     2
  9
$LTSCALE
 40
100.0
  9
$OSMODE
 70
  4095
  9
$ATTMODE
 70
     1
  9
$TEXTSIZE
 40
25.0
  9
$TRACEWID
 40
0.05
  9
$TEXTSTYLE
  7
TITLE3
  9
$CLAYER
  8
AM_5
  9
$CELTYPE
  6
BYLAYER
  9
$CECOLOR
 62
   256
  9
$DIMSCALE
 40
1.0
  9
$DIMASZ
 40
0.12
  9
$DIMEXO
 40
0.05
  9
$DIMDLI
 40
0.5
  9
$DIMRND
 40
0.0
  9
$DIMDLE
 40
0.0
  9
$DIMEXE
 40
0.1
  9
$DIMTP
 40
0.1
  9
$DIMTM
 40
0.1
  9
$DIMTXT
 40
0.12
  9
$DIMCEN
 40
0.0
  9
$DIMTSZ
 40
0.0
  9
$DIMTOL
 70
     0
  9
$DIMLIM
 70
     0
  9
$DIMTIH
 70
     1
  9
$DIMTOH
 70
     1
  9
$DIMSE1
 70
     0
  9
$DIMSE2
 70
     0
  9
$DIMTAD
 70
     0
  9
$DIMZIN
 70
     7
  9
$DIMBLK
  1

  9
$DIMASO
 70
     0
  9
$DIMSHO
 70
     0
  9
$DIMPOST
  1

  9
$DIMAPOST
  1
mm
  9
$DIMALT
 70
     0
  9
$DIMALTD
 70
     2
  9
$DIMALTF
 40
25.3999999999999986
  9
$DIMLFAC
 40
1.0
  9
$DIMTOFL
 70
     0
  9
$DIMTVP
 40
0.0
  9
$DIMTIX
 70
     0
  9
$DIMSOXD
 70
     0
  9
$DIMSAH
 70
     0
  9
$DIMBLK1
  1

  9
$DIMBLK2
  1

  9
$DIMSTYLE
  2
AM_ANSI
  9
$DIMCLRD
 70
   256
  9
$DIMCLRE
 70
   256
  9
$DIMCLRT
 70
     2
  9
$DIMTFAC
 40
0.71
  9
$DIMGAP
 40
0.06
  9
$LUNITS
 70
     2
  9
$LUPREC
 70
     2
  9
$SKETCHINC
 40
0.1
  9
$FILLETRAD
 40
0.0
  9
$AUNITS
 70
     0
  9
$AUPREC
 70
     2
  9
$MENU
  1
\acad12\support\cnc
  9
$ELEVATION
 40
0.0
  9
$PELEVATION
 40
0.0
  9
$THICKNESS
 40
0.0
  9
$LIMCHECK
 70
     0
  9
$BLIPMODE
 70
     0
  9
$CHAMFERA
 40
0.0
  9
$CHAMFERB
 40
0.0
  9
$SKPOLY
 70
     0
  9
$TDCREATE
 40
2450764.4272453710436821
  9
$TDUPDATE
 40
2458892.4017361109144986
  9
$TDINDWG
 40
1.8453922684999999
  9
$TDUSRTIMER
 40
1.8453855093
  9
$USRTIMER
 70
     1
  9
$ANGBASE
 50
0.0
  9
$ANGDIR
 70
     0
  9
$PDMODE
 70
     2
  9
$PDSIZE
 40
10.0
  9
$PLINEWID
 40
0.0
  9
$COORDS
 70
     1
  9
$SPLFRAME
 70
     0
  9
$SPLINETYPE
 70
     6
  9
$SPLINESEGS
 70
     8
  9
$ATTDIA
 70
     1
  9
$ATTREQ
 70
     1
  9
$HANDLING
 70
     1
  9
$HANDSEED
  5
87CB
  9
$SURFTAB1
 70
     6
  9
$SURFTAB2
 70
     6
  9
$SURFTYPE
 70
     6
  9
$SURFU
 70
     6
  9
$SURFV
 70
     6
  9
$UCSNAME
  2

  9
$UCSORG
 10
0.0
 20
0.0
 30
0.0
  9
$UCSXDIR
 10
1.0
 20
0.0
 30
0.0
  9
$UCSYDIR
 10
0.0
 20
1.0
 30
0.0
  9
$PUCSNAME
  2

  9
$PUCSORG
 10
0.0
 20
0.0
 30
0.0
  9
$PUCSXDIR
 10
1.0
 20
0.0
 30
0.0
  9
$PUCSYDIR
 10
0.0
 20
1.0
 30
0.0
  9
$USERI1
 70
     0
  9
$USERI2
 70
     0
  9
$USERI3
 70
     0
  9
$USERI4
 70
     0
  9
$USERI5
 70
     0
  9
$USERR1
 40
0.0
  9
$USERR2
 40
0.0
  9
$USERR3
 40
0.0
  9
$USERR4
 40
0.0
  9
$USERR5
 40
0.0
  9
$WORLDVIEW
 70
     1
  9
$SHADEDGE
 70
     3
  9
$SHADEDIF
 70
    70
  9
$TILEMODE
 70
     1
  9
$MAXACTVP
 70
    16
  9
$PLIMCHECK
 70
     0
  9
$PEXTMIN
 10
1.0000000000000000E+20
 20
1.0000000000000000E+20
 30
1.0000000000000000E+20
  9
$PEXTMAX
 10
-1.0000000000000000E+20
 20
-1.0000000000000000E+20
 30
-1.0000000000000000E+20
  9
$PLIMMIN
 10
0.0
 20
0.0
  9
$PLIMMAX
 10
12.0
 20
9.0
  9
$UNITMODE
 70
     0
  9
$VISRETAIN
 70
     0
  9
$PLINEGEN
 70
     0
  9
$PSLTSCALE
 70
     0
  0
ENDSEC
  0
SECTION
  2
TABLES
  0
TABLE
  2
VPORT
 70
     1
  0
VPORT
  2
*ACTIVE
 70
     0
 10
0.0
 20
0.0
 11
1.0
 21
1.0
 12
-628.6598695518554223
 22
269.3157576951750798
 13
0.0
 23
0.0
 14
25.0
 24
25.0
 15
100.0
 25
100.0
 16
0.0
 26
0.0
 36
1.0
 17
2909.3219950276388772
 27
1064.9416690276950703
 37
-0.7257469300703157
 40
2685.8948272129259749
 41
1.6264800861141011
 42
50.0
 43
0.0
 44
0.0
 50
0.0
 51
0.0
 71
     0
 72
   100
 73
     1
 74
     0
 75
     0
 76
     0
 77
     0
 78
     0
  0
ENDTAB
  0
TABLE
  2
LTYPE
 70
    12
  0
LTYPE
  2
CONTINUOUS
 70
     0
  3
Solid line
 72
    65
 73
     0
 40
0.0
  0
LTYPE
  2
PHANTOM2
 70
     0
  3
Phantom (.5x) ___ _ _ ___ _ _ ___ _ _ ___ _ _
 72
    65
 73
     6
 40
1.25
 49
0.625
 49
-0.125
 49
0.125
 49
-0.125
 49
0.125
 49
-0.125
  0
LTYPE
  2
PHANTOM
 70
     0
  3
Phantom ______  __  __  ______  __  __  ______
 72
    65
 73
     6
 40
2.5
 49
1.25
 49
-0.25
 49
0.25
 49
-0.25
 49
0.25
 49
-0.25
  0
LTYPE
  2
HIDDEN
 70
     0
  3
__ __ __ __ __ __ __ __ __ __ __ __ __ __ __ __
 72
    65
 73
     2
 40
0.375
 49
0.25
 49
-0.125
  0
LTYPE
  2
DASHED
 70
     0
  3
Dashed __ __ __ __ __ __ __ __ __ __ __ __ __ _
 72
    65
 73
     2
 40
0.75
 49
0.5
 49
-0.25
  0
LTYPE
  2
DOT
 70
     0
  3
Dot . . . . . . . . . . . . . . . . . . . . . .
 72
    65
 73
     2
 40
0.25
 49
0.0
 49
-0.25
  0
LTYPE
  2
CENTER
 70
     0
  3
Center ____ _ ____ _ ____ _ ____ _ ____ _ ____
 72
    65
 73
     4
 40
2.0
 49
1.25
 49
-0.25
 49
0.25
 49
-0.25
  0
LTYPE
  2
CENTER2
 70
     0
  3
Center (.5x) ___ _ ___ _ ___ _ ___ _ ___ _ ___
 72
    65
 73
     4
 40
1.125
 49
0.75
 49
-0.125
 49
0.125
 49
-0.125
  0
LTYPE
  2
HIDDEN2
 70
     0
  3
Hidden (.5x) _ _ _ _ _ _ _ _ _ _ _ _ _ _ _ _ _
 72
    65
 73
     2
 40
0.1875
 49
0.125
 49
-0.0625
  0
LTYPE
  2
ACANSTGB
 70
     0
  3
__ . . __ . .
 72
    65
 73
     6
 40
0.35433070866
 49
0.15748031496
 49
-0.03937007874
 49
0.03937007874
 49
-0.03937007874
 49
0.03937007874
 49
-0.03937007874
  0
LTYPE
  2
ACANSTGL
 70
     0
  3
_ _ _ _ _
 72
    65
 73
     2
 40
0.11811023622
 49
0.07874015748
 49
-0.03937007874
  0
ENDTAB
  0
TABLE
  2
LAYER
 70
     2
  0
LAYER
  2
0
 70
     0
 62
     7
  6
CONTINUOUS
  0
LAYER
  2
AM_5
 70
     0
 62
     3
  6
CONTINUOUS
  0
ENDTAB
  0
TABLE
  2
STYLE
 70
     7
  0
STYLE
  2
STANDARD
 70
     0
 40
0.0
 41
1.0
 50
0.0
 71
     0
 42
0.2
  3
txt
  4

  0
STYLE
  2
ANNOTATIVE
 70
     0
 40
0.0
 41
1.0
 50
0.0
 71
     0
 42
0.2
  3
txt
  4

  0
STYLE
  2
TITLE3
 70
     0
 40
25.0
 41
1.0
 50
0.0
 71
     0
 42
25.0
  3
SIMPLEX.shx
  4

  0
STYLE
  2
SIMPLEX
 70
     0
 40
40.0
 41
1.0
 50
0.0
 71
     0
 42
25.0
  3
SIMPLEX
  4

  0
STYLE
  2
TITLE5
 70
     0
 40
25.0
 41
1.0
 50
0.0
 71
     0
 42
25.0
  3
SIMPLEX
  4

  0
STYLE
  2
ACANSTS
 70
     0
 40
1.0
 41
1.0
 50
0.0
 71
     0
 42
25.0
  3
romans.shx
  4

  0
STYLE
  2
ACANSGDT
 70
     0
 40
0.0
 41
1.0
 50
0.0
 71
     0
 42
25.0
  3
amgdt.shx
  4

  0
ENDTAB
  0
TABLE
  2
VIEW
 70
     0
  0
ENDTAB
  0
TABLE
  2
UCS
 70
     0
  0
ENDTAB
  0
TABLE
  2
APPID
 70
    35
  0
APPID
  2
ACAD
 70
     0
  0
APPID
  2
ACADANNOTATIVE
 70
     0
  0
APPID
  2
ACAD_MLEADERVER
 70
     0
  0
APPID
  2
ACAD_EXEMPT_FROM_CAD_STANDARDS
 70
     0
  0
APPID
  2
ACAECLAYERSTANDARD
 70
     0
  0
APPID
  2
ACAD_DSTYLE_DIMTEXT_FILL
 70
     0
  0
APPID
  2
ACAD_DSTYLE_DIMEXT_LENGTH
 70
     0
  0
APPID
  2
ACAD_DSTYLE_DIMEXT_ENABLED
 70
     0
  0
APPID
  2
ACAD_DSTYLE_DIM_LINETYPE
 70
     0
  0
APPID
  2
ACAD_DSTYLE_DIM_EXT1_LINETYPE
 70
     0
  0
APPID
  2
ACAD_DSTYLE_DIM_EXT2_LINETYPE
 70
     0
  0
APPID
  2
ACAD_DSTYLE_DIMJOGGED_JOGA
 70
     0
  0
APPID
  2
ACAD_DSTYLE_DIMARC_LENGTH_
 70
     0
  0
APPID
  2
ACAD_PSEXT
 70
     0
  0
APPID
  2
CONTENTBLOCKICON
 70
     0
  0
APPID
  2
GENIUS_GENDIM_13
 70
     0
  0
APPID
  2
GENIUS_GENDTOL_13
 70
     0
  0
APPID
  2
GENIUS_GE3DTOL_13
 70
     0
  0
APPID
  2
MCAD_NO_VIS
 70
     0
  0
APPID
  2
ACAD_TEMP_GRAPHIC
 70
     0
  0
APPID
  2
AD_DRAW
 70
     0
  0
APPID
  2
ACATTRIBSERVICES
 70
     0
  0
APPID
  2
ASURF_PCURVE_APPNAME
 70
     0
  0
APPID
  2
AMG_3D2D_5_0
 70
     0
  0
APPID
  2
DESIGNERASSEMBLIES
 70
     0
  0
APPID
  2
ACADM_DIM_EDIT
 70
     0
  0
APPID
  2
AMDT_DM_ADJ
 70
     0
  0
APPID
  2
AMG_3D2D_5_00
 70
     0
  0
APPID
  2
AMG_3D2D_5_01
 70
     0
  0
APPID
  2
ACAD_DSTYLE_DIMBREAK
 70
     0
  0
APPID
  2
ACAD_DSTYLE_DIMJAG
 70
     0
  0
APPID
  2
ACAD_NAV_VCDISPLAY
 70
     0
  0
APPID
  2
GENIUS_GENREC_14
 70
     0
  0
APPID
  2
GENIUS_GENODEF_13
 70
     0
  0
APPID
  2
GENIUS_GENOBJ-N-REC_13
 70
     0
  0
ENDTAB
  0
TABLE
  2
DIMSTYLE
 70
     9
  0
DIMSTYLE
  2
STANDARD
 70
     0
  3

  4

  5

  6

  7

 40
1.0
 41
0.18
 42
0.0625
 43
0.38
 44
0.18
 45
0.0
 46
0.0
 47
0.0
 48
0.0
140
0.18
141
0.09
142
0.0
143
25.3999999999999986
144
1.0
145
0.0
146
1.0
147
0.09
 71
     0
 72
     0
 73
     1
 74
     1
 75
     0
 76
     0
 77
     0
 78
     0
170
     0
171
     2
172
     0
173
     0
174
     0
175
     0
176
     0
177
     0
178
     0
  0
DIMSTYLE
  2
ANNOTATIVE
 70
     0
  3

  4

  5

  6

  7

 40
1.0
 41
0.18
 42
0.0625
 43
0.38
 44
0.18
 45
0.0
 46
0.0
 47
0.0
 48
0.0
140
0.18
141
0.09
142
0.0
143
25.3999999999999986
144
1.0
145
0.0
146
1.0
147
0.09
 71
     0
 72
     0
 73
     1
 74
     1
 75
     0
 76
     0
 77
     0
 78
     0
170
     0
171
     2
172
     0
173
     0
174
     0
175
     0
176
     0
177
     0
178
     0
  0
DIMSTYLE
  2
AM_ANSI
 70
     0
  3

  4
mm
  5

  6

  7

 40
1.0
 41
0.12
 42
0.05
 43
0.5
 44
0.1
 45
0.0
 46
0.0
 47
0.1
 48
0.1
140
0.12
141
0.0
142
0.0
143
25.3999999999999986
144
1.0
145
0.0
146
0.71
147
0.06
 71
     0
 72
     0
 73
     1
 74
     1
 75
     0
 76
     0
 77
     0
 78
     7
170
     0
171
     2
172
     0
173
     0
174
     0
175
     0
176
   256
177
   256
178
     2
  0
DIMSTYLE
  2
AM_ANSI$3
 70
     0
  3

  4
mm
  5

  6

  7

 40
1.0
 41
0.12
 42
0.05
 43
0.5
 44
0.1
 45
0.0
 46
0.0
 47
0.1
 48
0.1
140
0.12
141
0.0
142
0.0
143
25.3999999999999986
144
1.0
145
0.0
146
0.71
147
0.06
 71
     0
 72
     0
 73
     1
 74
     1
 75
     0
 76
     0
 77
     0
 78
     7
170
     0
171
     2
172
     0
173
     0
174
     0
175
     0
176
   256
177
   256
178
     2
  0
DIMSTYLE
  2
AM_ANSI$4
 70
     0
  3

  4
mm
  5

  6

  7

 40
1.0
 41
0.12
 42
0.05
 43
0.5
 44
0.1
 45
0.0
 46
0.0
 47
0.1
 48
0.1
140
0.12
141
0.0
142
0.0
143
25.3999999999999986
144
1.0
145
0.0
146
0.71
147
0.06
 71
     0
 72
     0
 73
     1
 74
     1
 75
     0
 76
     0
 77
     0
 78
     7
170
     0
171
     2
172
     0
173
     0
174
     0
175
     0
176
   256
177
   256
178
     2
  0
DIMSTYLE
  2
AM_ANSI$7
 70
     0
  3

  4
mm
  5

  6

  7

 40
1.0
 41
0.12
 42
0.05
 43
0.5
 44
0.1
 45
0.0
 46
0.0
 47
0.1
 48
0.1
140
0.12
141
0.0
142
0.0
143
25.3999999999999986
144
1.0
145
0.0
146
0.71
147
0.06
 71
     0
 72
     0
 73
     1
 74
     1
 75
     0
 76
     0
 77
     0
 78
     7
170
     0
171
     2
172
     0
173
     0
174
     0
175
     0
176
   256
177
   256
178
     2
  0
DIMSTYLE
  2
AM_ANSI$SF
 70
     0
  3

  4
mm
  5

  6

  7

 40
1.0
 41
0.12
 42
0.05
 43
0.5
 44
0.1
 45
0.0
 46
0.0
 47
0.1
 48
0.1
140
0.12
141
0.0
142
0.0
143
25.3999999999999986
144
1.0
145
0.0
146
0.71
147
0.06
 71
     0
 72
     0
 73
     1
 74
     1
 75
     1
 76
     1
 77
     0
 78
     7
170
     0
171
     2
172
     0
173
     0
174
     0
175
     0
176
   256
177
   256
178
     2
  0
DIMSTYLE
  2
AM_ANSI$SH
 70
     0
  3

  4
mm
  5

  6

  7

 40
1.0
 41
0.12
 42
0.05
 43
0.5
 44
0.1
 45
0.0
 46
0.0
 47
0.1
 48
0.1
140
0.12
141
0.0
142
0.0
143
25.3999999999999986
144
1.0
145
0.0
146
0.71
147
0.06
 71
     0
 72
     0
 73
     1
 74
     1
 75
     1
 76
     1
 77
     0
 78
     7
170
     0
171
     2
172
     0
173
     1
174
     0
175
     0
176
   256
177
   256
178
     2
  0
ENDTAB
  0
ENDSEC
  0
SECTION
  2
BLOCKS
  0
BLOCK
  8
0
  2
$MODEL_SPACE
 70
     0
 10
0.0
 20
0.0
 30
0.0
  3
$MODEL_SPACE
  1

  0
ENDBLK
  5
8729
  8
0
  0
BLOCK
 67
     1
  8
0
  2
$PAPER_SPACE
 70
     0
 10
0.0
 20
0.0
 30
0.0
  3
$PAPER_SPACE
  1

  0
ENDBLK
  5
8725
 67
     1
  8
0
  0
BLOCK
  8
0
  2
GENAXEH
 70
     0
 10
0.0
 20
0.0
 30
0.0
  3
GENAXEH
  1

  0
LINE
  5
699B
  8
0
 10
-1.0
 20
0.0
 30
0.0
 11
1.0
 21
0.0
 31
0.0
  0
ENDBLK
  5
699D
  8
0
  0
ENDSEC
  0
SECTION
  2
ENTITIES
  0
LINE
  5
23F5
  8
0
 62
     7
 10
1912.3952551109759952
 20
2304.9584724746077882
 30
0.0
 11
1883.8626531255920327
 21
2272.7852398474201436
 31
0.0
  0
LINE
  5
23F7
  8
0
 62
     7
 10
1873.8126791480649445
 20
2322.4242733136197785
 30
0.0
 11
1893.9126271031200304
 21
2322.4242733136197785
 31
0.0
  0
LINE
  5
23F8
  8
0
 62
     7
 10
1893.9126271031200304
 20
2322.4242733136197785
 30
0.0
 11
1893.9126271031200304
 21
2304.9584724746059692
 31
0.0
  0
LINE
  5
23F9
  8
0
 62
     7
 10
1893.9126271031200304
 20
2304.9584724746059692
 30
0.0
 11
1912.3952551109759952
 21
2304.9584724746077882
 31
0.0
  0
LINE
  5
23FD
  8
0
 62
     7
 10
1855.3300511402089796
 20
2304.9584724746077882
 30
0.0
 11
1883.8626531255920327
 21
2272.7852398474201436
 31
0.0
  0
LINE
  5
23FE
  8
0
 62
     7
 10
1873.8126791480649445
 20
2322.4242733136197785
 30
0.0
 11
1873.8126791480649445
 21
2304.9584724746059692
 31
0.0
  0
LINE
  5
23FF
  8
0
 62
     7
 10
1873.8126791480649445
 20
2304.9584724746059692
 30
0.0
 11
1855.3300511402089796
 21
2304.9584724746077882
 31
0.0
  0
LINE
  5
2400
  8
0
 62
     7
 10
1912.3952551109759952
 20
1741.9420020940319773
 30
0.0
 11
1883.8626531255920327
 21
1709.7687694668450149
 31
0.0
  0
LINE
  5
2401
  8
0
 62
     7
 10
1873.8126791480649445
 20
1759.4078029330419213
 30
0.0
 11
1893.9126271031200304
 21
1759.4078029330419213
 31
0.0
  0
LINE
  5
2402
  8
0
 62
     7
 10
1893.9126271031200304
 20
1759.4078029330419213
 30
0.0
 11
1893.9126271031200304
 21
1741.9420020940319773
 31
0.0
  0
LINE
  5
2403
  8
0
 62
     7
 10
1893.9126271031200304
 20
1741.9420020940319773
 30
0.0
 11
1912.3952551109759952
 21
1741.9420020940319773
 31
0.0
  0
LINE
  5
2404
  8
0
 62
     7
 10
1855.3300511402080701
 20
1741.9420020940319773
 30
0.0
 11
1883.8626531255920327
 21
1709.7687694668450149
 31
0.0
  0
LINE
  5
2405
  8
0
 62
     7
 10
1873.8126791480649445
 20
1759.4078029330419213
 30
0.0
 11
1873.8126791480649445
 21
1741.9420020940319773
 31
0.0
  0
LINE
  5
2406
  8
0
 62
     7
 10
1873.8126791480649445
 20
1741.9420020940319773
 30
0.0
 11
1855.3300511402080701
 21
1741.9420020940319773
 31
0.0
  0
LINE
  5
30F6
  8
0
 62
     7
 10
3890.0000000001559783
 20
0.0
 30
0.0
 11
671.4306517100736755
 21
0.0
 31
0.0
  0
LINE
  5
30F7
  8
0
 62
     7
 10
671.4306517100736755
 20
0.0
 30
0.0
 11
671.4306517100736755
 21
2668.5147229613089621
 31
0.0
  0
LINE
  5
30F8
  8
0
 62
     7
 10
671.4306517100736755
 20
2668.5147229613080526
 30
0.0
 11
3890.0000000001559783
 21
2668.5147229613080526
 31
0.0
  0
LINE
  5
30F9
  8
0
 62
     7
 10
3890.0000000001559783
 20
2668.5147229613080526
 30
0.0
 11
3890.0000000001559783
 21
0.0
 31
0.0
  0
TEXT
  5
3AC8
  8
0
 62
     7
 10
918.5179704070286562
 20
51.5054056450702902
 30
0.0
 40
33.5999999999967329
  1
available on request
  7
TITLE3
  0
TEXT
  5
3AC9
  8
0
 62
     7
 10
918.5179704070286562
 20
109.105405645064593
 30
0.0
 40
33.5999999999967329
  1
Certified dimensions
  7
TITLE3
  0
TEXT
  5
3ACA
  8
0
 62
     7
 10
918.5179704070286562
 20
166.705405645058903
 30
0.0
 40
33.5999999999967329
  1
without notice or obligation.
  7
TITLE3
  0
TEXT
  5
3ACB
  8
0
 62
     7
 10
918.5179704070286562
 20
224.3054056450532983
 30
0.0
 40
33.5999999999967329
  1
specifications at any time
  7
TITLE3
  0
TEXT
  5
3ACC
  8
0
 62
     7
 10
918.5179704070286562
 20
281.9054056450477788
 30
0.0
 40
33.5999999999967329
  1
the right to change 
  7
TITLE3
  0
TEXT
  5
3ACD
  8
0
 62
     7
 10
918.5179704070286562
 20
397.1054056450361145
 30
0.0
 40
33.5999999999967329
  1
NOTE
  7
TITLE3
  0
TEXT
  5
3ACE
  8
0
 62
     7
 10
918.5179704070286562
 20
339.5054056450421172
 30
0.0
 40
33.5999999999967329
  1
The manufacturer reserves
  7
TITLE3
  0
TEXT
  5
430A
  8
0
 62
     7
 10
2591.288824598798783
 20
1932.5696667207480459
 30
0.0
 40
25.0
  1
ELECTRIC
  7
TITLE3
  0
TEXT
  5
430B
  8
0
 62
     7
 10
2591.288824598798783
 20
1890.9030000540799392
 30
0.0
 40
25.0
  1
BOX
  7
TITLE3
  0
SOLID
  5
430C
  8
0
 62
     7
 10
2479.2286437150228267
 20
1899.9612727287860707
 30
0.0
 11
2449.9616417774082038
 21
1891.688268583747913
 31
0.0
 12
2474.9635071308139231
 22
1909.0060839439529445
 32
0.0
 13
2474.9635071308139231
 23
1909.0060839439529445
 33
0.0
  0
TEXT
  5
4438
  8
0
 62
     7
 10
2573.6560087405000559
 20
346.7221498226609242
 30
0.0
 40
62.5
  1
temperzone ISD 171LYX
 41
1.1190335573050241
  7
TITLE5
 72
     5
 11
3822.5773896612859062
 21
346.7221498226609242
 31
0.0
  0
TEXT
  5
4439
  8
0
 62
     7
 10
3315.0000000001559783
 20
87.5
 30
0.0
 40
37.5
  1
ISD 171LYX
 41
1.1871345029239759
  7
TITLE3
 72
     5
 11
3677.5000000001559783
 21
87.5
 31
0.0
  0
TEXT
  5
443A
  8
0
 62
     7
 10
2748.9580073525839907
 20
137.5
 30
0.0
 40
37.5
  1
23-01-20
 41
0.6913580246913628
  7
TITLE3
 72
     5
 11
2948.9580073525849002
 21
137.5
 31
0.0
  0
TEXT
  5
443B
  8
0
 62
     7
 10
2583.9412289613469511
 20
138.5390173251261103
 30
0.0
 40
30.0
  1
Date
  7
SIMPLEX
  0
TEXT
  5
443C
  8
0
 62
     7
 10
3710.1389904671559634
 20
161.8791275292639966
 30
0.0
 40
30.0
  1
Revision
 41
0.7812095035934976
  7
SIMPLEX
 72
     5
 11
3841.8285925014879467
 21
161.8791275292639966
 31
0.0
  0
LINE
  5
443D
  8
0
 62
     7
 10
3695.6141874878539966
 20
26.0531160603964089
 30
0.0
 11
3695.6141874878539966
 21
210.3358196356828955
 31
0.0
  0
LINE
  5
443E
  8
0
 62
     7
 10
2551.6894118215900562
 20
433.2994961169263206
 30
0.0
 11
2551.6894118215900562
 21
26.0531160603964089
 31
0.0
  0
LINE
  5
443F
  8
0
 62
     7
 10
3298.6420975165260643
 20
26.0531160603964089
 30
0.0
 11
3298.6420975165260643
 21
210.3358196356828955
 31
0.0
  0
LINE
  5
4440
  8
0
 62
     7
 10
3298.6420975165260643
 20
116.6407490868297003
 30
0.0
 11
2551.6894118215900562
 21
116.6407490868297003
 31
0.0
  0
LINE
  5
4441
  8
0
 62
     7
 10
3854.4693315474569317
 20
210.3358196356828955
 30
0.0
 11
2551.6894118215900562
 21
210.3358196356828955
 31
0.0
  0
LINE
  5
4442
  8
0
 62
     7
 10
2551.6894118215900562
 20
26.0531160603964089
 30
0.0
 11
3854.0974475745210839
 21
26.0531160603964089
 31
0.0
  0
LINE
  5
4443
  8
0
 62
     7
 10
3854.0974475745210839
 20
26.0531160603964089
 30
0.0
 11
3854.0974475745210839
 21
433.2994961169263206
 31
0.0
  0
LINE
  5
4444
  8
0
 62
     7
 10
3854.0974475745210839
 20
433.2994961169263206
 30
0.0
 11
2551.6894118215900562
 21
433.2994961169263206
 31
0.0
  0
TEXT
  5
4445
  8
0
 62
     7
 10
2583.104023879045144
 20
59.9031100816970721
 30
0.0
 40
25.0
  1
Scale
 41
1.3701747965659581
  7
SIMPLEX
 72
     5
 11
2708.7033802309238126
 21
59.9031100816970721
 31
0.0
  0
TEXT
  5
4446
  8
0
 62
     7
 10
3371.0739045011541748
 20
161.1167893833869016
 30
0.0
 40
25.0
  1
Drawing No.
  7
SIMPLEX
 72
     2
 11
3588.9310473582959276
 21
161.1167893833869016
 31
0.0
  0
TEXT
  5
444B
  8
0
 62
     7
 10
2766.9599802419847947
 20
58.6085586802493665
 30
0.0
 40
37.5
  1
1:10
  7
TITLE3
  0
LINE
  5
446A
  8
0
 62
     7
 10
2477.0960754229167833
 20
1904.4836783363700761
 30
0.0
 11
2518.9843086383771151
 21
1924.2363333874141063
 31
0.0
  0
LINE
  5
446B
  8
0
 62
     7
 10
2518.9843086383771151
 20
1924.2363333874141063
 30
0.0
 11
2571.288824598795145
 21
1924.2363333874141063
 31
0.0
  0
LINE
  5
50D1
  8
0
 10
1282.0860411378901063
 20
2374.7001991520801312
 30
0.0
 11
2494.0860411378898789
 21
2374.7001991520801312
 31
0.0
  0
LINE
  5
50D2
  8
0
 10
2494.0860411378898789
 20
2374.7001991520801312
 30
0.0
 11
2494.0860411378898789
 21
2125.6501991520781303
 31
0.0
  0
LINE
  5
50D3
  8
0
 10
1262.1360411378889239
 20
2125.6501991520781303
 30
0.0
 11
2514.0360411378928802
 21
2125.6501991520781303
 31
0.0
  0
LINE
  5
50D6
  8
0
 10
1282.0860411378901063
 20
2374.7001991520801312
 30
0.0
 11
1282.0860411378901063
 21
2125.6501991520781303
 31
0.0
  0
LINE
  5
50D9
  8
0
 10
1327.2360411378879235
 20
2425.6501991520772208
 30
0.0
 11
2426.2360411378890603
 21
2425.6501991520772208
 31
0.0
  0
LINE
  5
50DA
  8
0
 10
1327.2360411378879235
 20
2425.6501991520772208
 30
0.0
 11
1327.2360411378879235
 21
2374.7001991520801312
 31
0.0
  0
LINE
  5
50DB
  8
0
 10
2426.2360411378890603
 20
2425.6501991520772208
 30
0.0
 11
2426.2360411378890603
 21
2374.7001991520801312
 31
0.0
  0
LINE
  5
50DC
  8
0
 10
1262.1360411378889239
 20
2384.6501991520799493
 30
0.0
 11
1262.1360411378889239
 21
2373.2001991520810407
 31
0.0
  0
LINE
  5
50DD
  8
0
 10
2514.0360411378928802
 20
2384.6501991520799493
 30
0.0
 11
2514.0360411378928802
 21
2373.2001991520810407
 31
0.0
  0
LINE
  5
50DE
  8
0
 10
1262.1360411378889239
 20
2384.6501991520799493
 30
0.0
 11
1327.2360411378879235
 21
2384.6501991520799493
 31
0.0
  0
LINE
  5
50DF
  8
0
 10
2426.2360411378890603
 20
2384.6501991520799493
 30
0.0
 11
2514.0360411378928802
 21
2384.6501991520799493
 31
0.0
  0
LINE
  5
513A
  8
0
 10
2542.0360411378928802
 20
2261.2251991520788579
 30
0.0
 11
2542.0360411378928802
 21
2245.2251991520788579
 31
0.0
  0
LINE
  5
513C
  8
0
 10
2514.0360411378928802
 20
2261.2251991520811316
 30
0.0
 11
2542.0360411378928802
 21
2261.2251991520811316
 31
0.0
  0
LINE
  5
513D
  8
0
 10
2514.0360411378928802
 20
2245.2251991520820411
 30
0.0
 11
2542.0360411378928802
 21
2245.2251991520788579
 31
0.0
  0
LINE
  5
513F
  8
0
  6
ACANSTGL
 10
2494.0860411378898789
 20
2163.7101991520771662
 30
0.0
 11
2536.0300411378898389
 21
2163.7101991520771662
 31
0.0
  0
LINE
  5
5140
  8
0
  6
ACANSTGL
 10
2494.0860411378898789
 20
2143.7101991520771662
 30
0.0
 11
2536.0300411378898389
 21
2143.7101991520780757
 31
0.0
  0
LINE
  5
5141
  8
0
  6
ACANSTGL
 10
2536.0300411378898389
 20
2163.7101991520771662
 30
0.0
 11
2536.0300411378898389
 21
2143.7101991520780757
 31
0.0
  0
LINE
  5
5142
  8
0
 10
2514.0360411378928802
 20
2143.7101991520780757
 30
0.0
 11
2514.0360411378928802
 21
2125.6501991520781303
 31
0.0
  0
LINE
  5
518F
  8
0
 10
2523.5860411378898789
 20
2373.2001991520810407
 30
0.0
 11
2523.5860411378898789
 21
2345.2001991520801312
 31
0.0
  0
LINE
  5
5190
  8
0
 10
2494.0860411378898789
 20
2373.2001991520810407
 30
0.0
 11
2523.5860411378898789
 21
2373.2001991520810407
 31
0.0
  0
LINE
  5
5191
  8
0
 10
2494.0860411378898789
 20
2345.2001991520801312
 30
0.0
 11
2523.5860411378898789
 21
2345.2001991520801312
 31
0.0
  0
POINT
  5
5193
  8
0
 10
2509.5860411378898789
 20
2359.2001991520810407
 30
0.0
  0
LINE
  5
51E5
  8
0
 10
1282.0860411378901063
 20
2373.2001991520810407
 30
0.0
 11
1252.5860411378889694
 21
2373.2001991520810407
 31
0.0
  0
LINE
  5
51E6
  8
0
 10
1282.0860411378901063
 20
2345.2001991520801312
 30
0.0
 11
1252.5860411378889694
 21
2345.2001991520801312
 31
0.0
  0
LINE
  5
51E7
  8
0
 10
1252.5860411378889694
 20
2373.2001991520810407
 30
0.0
 11
1252.5860411378889694
 21
2345.2001991520801312
 31
0.0
  0
POINT
  5
51E8
  8
0
 10
1266.5860411378889694
 20
2359.2001991520810407
 30
0.0
 50
180.0
  0
LINE
  5
51EE
  8
0
 10
1262.1360411378889239
 20
2345.2001991520801312
 30
0.0
 11
1262.1360411378889239
 21
2125.6501991520781303
 31
0.0
  0
LINE
  5
5287
  8
0
 10
2373.5860411378848767
 20
2125.6501991520781303
 30
0.0
 11
2373.5860411378889694
 21
1691.6501991520779029
 31
0.0
  0
LINE
  5
5288
  8
0
 10
1405.5860411378889694
 20
1691.6501991520779029
 30
0.0
 11
2373.5860411378848767
 21
1691.6501991520779029
 31
0.0
  0
LINE
  5
5289
  8
0
 10
1405.5860411378889694
 20
2125.6501991520781303
 30
0.0
 11
1405.5860411378889694
 21
1691.6501991520779029
 31
0.0
  0
LINE
  5
528A
  8
0
 10
1405.5860411378889694
 20
1691.6501991520779029
 30
0.0
 11
1405.5860411378889694
 21
1641.6501991520779029
 31
0.0
  0
LINE
  5
528B
  8
0
 10
1405.5860411378889694
 20
1641.6501991520779029
 30
0.0
 11
2373.5860411378848767
 21
1641.6501991520769934
 31
0.0
  0
LINE
  5
528D
  8
0
 10
2373.5860411378848767
 20
1691.6501991520779029
 30
0.0
 11
2373.5860411378848767
 21
1641.6501991520769934
 31
0.0
  0
LINE
  5
528F
  8
0
 10
2373.5860411378889694
 20
1724.1001991520779484
 30
0.0
 11
2407.5860411378889694
 21
1724.1001991520779484
 31
0.0
  0
LINE
  5
5290
  8
0
 10
2373.5860411378889694
 20
1696.1001991520779484
 30
0.0
 11
2407.5860411378889694
 21
1696.1001991520779484
 31
0.0
  0
LINE
  5
5291
  8
0
 10
2407.5860411378889694
 20
1724.1001991520779484
 30
0.0
 11
2407.5860411378889694
 21
1696.1001991520779484
 31
0.0
  0
POINT
  5
5292
  8
0
 10
2393.5860411378889694
 20
1710.1001991520779484
 30
0.0
  0
LINE
  5
5293
  8
0
 10
1405.5860411378889694
 20
1724.1001991520779484
 30
0.0
 11
1375.5860411378889694
 21
1724.1001991520779484
 31
0.0
  0
LINE
  5
5294
  8
0
 10
1405.5860411378889694
 20
1696.1001991520779484
 30
0.0
 11
1375.5860411378889694
 21
1696.1001991520779484
 31
0.0
  0
LINE
  5
5295
  8
0
 10
1375.5860411378889694
 20
1724.1001991520779484
 30
0.0
 11
1375.5860411378889694
 21
1696.1001991520779484
 31
0.0
  0
POINT
  5
5296
  8
0
 10
1389.5860411378889694
 20
1710.1001991520779484
 30
0.0
 50
180.0
  0
LINE
  5
52E3
  8
0
 10
2449.5860411378857862
 20
2055.6501991520781303
 30
0.0
 11
2449.5860411378857862
 21
1746.6501991520779029
 31
0.0
  0
LINE
  5
52E4
  8
0
 10
2373.5860411378848767
 20
1746.6501991520779029
 30
0.0
 11
2449.5860411378857862
 21
1746.6501991520779029
 31
0.0
  0
LINE
  5
52E5
  8
0
 10
2373.5860411378848767
 20
2055.6501991520781303
 30
0.0
 11
2449.5860411378857862
 21
2055.6501991520781303
 31
0.0
  0
LINE
  5
536B
  8
0
 10
3599.1368473805118811
 20
1044.1623321608719834
 30
0.0
 11
3599.1368473805118811
 21
649.1623321608716424
 31
0.0
  0
LINE
  5
536C
  8
0
 10
3350.0868473805121539
 20
1044.1623321608719834
 30
0.0
 11
3350.0868473805121539
 21
624.1623321608716424
 31
0.0
  0
LINE
  5
536D
  8
0
 10
3609.0868473805121539
 20
624.1623321608716424
 30
0.0
 11
3350.0868473805121539
 21
624.1623321608716424
 31
0.0
  0
LINE
  5
536F
  8
0
 10
3609.0868473805121539
 20
649.1623321608717561
 30
0.0
 11
3609.0868473805121539
 21
624.1623321608716424
 31
0.0
  0
LINE
  5
5370
  8
0
 10
3609.0868473805121539
 20
649.1623321608716424
 30
0.0
 11
3390.8468473805100984
 21
649.1623321608716424
 31
0.0
  0
LINE
  5
5371
  8
0
 10
3650.0868473805107897
 20
1030.1623321608719834
 30
0.0
 11
3650.0868473805107897
 21
671.1623321608717561
 31
0.0
  0
LINE
  5
5372
  8
0
 10
3650.0868473805107897
 20
671.1623321608717561
 30
0.0
 11
3599.1368473805118811
 21
671.1623321608717561
 31
0.0
  0
LINE
  5
5373
  8
0
 10
3650.0868473805107897
 20
1030.1623321608719834
 30
0.0
 11
3599.1368473805091526
 21
1030.1623321608719834
 31
0.0
  0
ARC
  5
5412
  8
0
 10
3378.1468473805120993
 20
649.1623321608716424
 30
0.0
 40
12.6999999999999993
 50
180.0
 51
0.0
  0
LINE
  5
5413
  8
0
 10
3365.446847380509098
 20
649.1623321608716424
 30
0.0
 11
3350.0868473805121539
 21
649.1623321608716424
 31
0.0
  0
CIRCLE
  5
5415
  8
0
 10
3378.1468473805120993
 20
649.8263321608723118
 30
0.0
 40
10.0
  0
LINE
  5
54B4
  8
0
 10
3604.2368473805131543
 20
1055.1623321608719834
 30
0.0
 11
3604.2368473805131543
 21
959.7623321608722335
 31
0.0
  0
LINE
  5
54B5
  8
0
 10
3576.2368473805090616
 20
1055.1623321608719834
 30
0.0
 11
3576.2368473805090616
 21
959.7623321608722335
 31
0.0
  0
LINE
  5
54B6
  8
0
 10
3576.2368473805090616
 20
959.7623321608722335
 30
0.0
 11
3604.2368473805131543
 21
959.7623321608722335
 31
0.0
  0
LINE
  5
54B7
  8
0
 10
3576.2368473805090616
 20
1055.1623321608719834
 30
0.0
 11
3604.2368473805131543
 21
1055.1623321608719834
 31
0.0
  0
LINE
  5
54B8
  8
0
 10
3576.2368473805090616
 20
1052.6623321608710739
 30
0.0
 11
3604.2368473805131543
 21
1052.6623321608710739
 31
0.0
  0
LINE
  5
54BB
  8
0
 10
3590.2368473805090616
 20
1050.0281385792759465
 30
0.0
 11
3590.2368473805090616
 21
1062.5281385792759465
 31
0.0
  0
LINE
  5
54BD
  8
0
 10
3599.1368473805118811
 20
1044.1623321608719834
 30
0.0
 11
3350.0868473805121539
 21
1044.1623321608719834
 31
0.0
  0
LINE
  5
551A
  8
0
 10
3350.0868473805121539
 20
635.1123321608722563
 30
0.0
 11
2916.0868473805089707
 21
635.1123321608722563
 31
0.0
  0
LINE
  5
551B
  8
0
 10
2916.0868473805089707
 20
1041.8086217760519503
 30
0.0
 11
2916.0868473805089707
 21
635.1123321608722563
 31
0.0
  0
LINE
  5
551C
  8
0
 10
3350.0868473805121539
 20
1041.8086217760519503
 30
0.0
 11
2916.0868473805089707
 21
1041.8086217760519503
 31
0.0
  0
LINE
  5
551D
  8
0
 10
2916.0868473805089707
 20
641.062332160871847
 30
0.0
 11
2866.0868473805080612
 21
641.062332160871847
 31
0.0
  0
LINE
  5
551E
  8
0
 10
2866.0868473805080612
 20
917.062332160871847
 30
0.0
 11
2866.0868473805080612
 21
641.062332160871847
 31
0.0
  0
LINE
  5
551F
  8
0
 10
2916.0868473805089707
 20
917.062332160871847
 30
0.0
 11
2866.0868473805080612
 21
917.062332160871847
 31
0.0
  0
LINE
  5
5520
  8
0
 10
2971.0868473805098802
 20
1028.477332160872038
 30
0.0
 11
2971.0868473805080612
 21
859.4773321608722654
 31
0.0
  0
LINE
  5
5521
  8
0
 10
3280.0868473805107897
 20
1028.477332160872038
 30
0.0
 11
3280.0868473805107897
 21
859.4773321608722654
 31
0.0
  0
LINE
  5
5523
  8
0
 10
3280.0868473805107897
 20
1028.477332160872038
 30
0.0
 11
2971.0868473805098802
 21
1028.477332160872038
 31
0.0
  0
LINE
  5
5525
  8
0
 10
2938.2368473805099711
 20
1055.1623321608719834
 30
0.0
 11
2938.2368473805099711
 21
959.7623321608722335
 31
0.0
  0
LINE
  5
5526
  8
0
 10
2910.2368473805081521
 20
1055.1623321608719834
 30
0.0
 11
2910.2368473805081521
 21
959.7623321608722335
 31
0.0
  0
LINE
  5
5527
  8
0
 10
2910.2368473805081521
 20
959.7623321608722335
 30
0.0
 11
2938.2368473805099711
 21
959.7623321608722335
 31
0.0
  0
LINE
  5
5528
  8
0
 10
2910.2368473805081521
 20
1055.1623321608719834
 30
0.0
 11
2938.2368473805099711
 21
1055.1623321608719834
 31
0.0
  0
LINE
  5
5529
  8
0
 10
2910.2368473805081521
 20
1052.6623321608710739
 30
0.0
 11
2938.2368473805099711
 21
1052.6623321608710739
 31
0.0
  0
LINE
  5
552A
  8
0
 10
2924.2368473805099711
 20
1047.6623321608719834
 30
0.0
 11
2924.2368473805099711
 21
1060.1623321608719834
 31
0.0
  0
TEXT
  5
57D9
  8
0
 10
1744.9664458990100684
 20
1916.3714841780461029
 30
0.0
 40
37.5
  1
ISD 171LYX
  7
TITLE3
  0
TEXT
  5
57DA
  8
0
 10
2995.9431804677301443
 20
920.7107492612652777
 30
0.0
 40
30.0
  1
ISD 171LYX
  7
TITLE3
  0
LINE
  5
57DB
  8
0
 62
     7
 10
1327.2360411378879235
 20
2445.6501991520781303
 30
0.0
 11
1327.2360411378879235
 21
2511.2800230429370458
 31
0.0
  0
LINE
  5
57DC
  8
0
 62
     7
 10
1357.2360411378899698
 20
2491.2800230429361363
 30
0.0
 11
1816.0802467144949333
 21
2491.2800230429361363
 31
0.0
  0
SOLID
  5
57DD
  8
0
 62
     7
 10
1357.2360411378899698
 20
2496.2800230429379553
 30
0.0
 11
1357.2360411378899698
 21
2486.2800230429370458
 31
0.0
 12
1327.2360411378879235
 22
2491.2800230429361363
 32
0.0
 13
1327.2360411378879235
 23
2491.2800230429361363
 33
0.0
  0
LINE
  5
57E1
  8
0
 62
     7
 10
2426.2360411378890603
 20
2445.6501991520781303
 30
0.0
 11
2426.2360411378890603
 21
2511.2800230429370458
 31
0.0
  0
LINE
  5
57E2
  8
0
 62
     7
 10
2396.2360411378899698
 20
2491.2800230429361363
 30
0.0
 11
1919.7452555600120832
 21
2491.2800230429361363
 31
0.0
  0
SOLID
  5
57E3
  8
0
 62
     7
 10
2396.2360411378899698
 20
2496.2800230429379553
 30
0.0
 11
2396.2360411378899698
 21
2486.2800230429370458
 31
0.0
 12
2426.2360411378890603
 22
2491.2800230429361363
 32
0.0
 13
2426.2360411378890603
 23
2491.2800230429361363
 33
0.0
  0
TEXT
  5
57EE
  8
0
 62
     7
 10
1827.9829274810520019
 20
2479.1800230429380463
 30
0.0
 40
25.0
  1
1099
  0
LINE
  5
57EF
  8
0
 62
     7
 10
1405.5860411378889694
 20
1621.6501991520769934
 30
0.0
 11
1405.5860411378889694
 21
1553.0419384885640284
 31
0.0
  0
LINE
  5
57F0
  8
0
 62
     7
 10
1435.5860411378880599
 20
1573.0419384885649379
 30
0.0
 11
1835.0746817229230601
 21
1573.0419384885649379
 31
0.0
  0
SOLID
  5
57F1
  8
0
 62
     7
 10
1435.5860411378880599
 20
1578.0419384885649379
 30
0.0
 11
1435.5860411378880599
 21
1568.0419384885649379
 31
0.0
 12
1405.5860411378889694
 22
1573.0419384885649379
 32
0.0
 13
1405.5860411378889694
 23
1573.0419384885649379
 33
0.0
  0
LINE
  5
57F3
  8
0
 62
     7
 10
2373.5860411378848767
 20
1621.6501991520769934
 30
0.0
 11
2373.5860411378848767
 21
1553.0419384885640284
 31
0.0
  0
LINE
  5
57F4
  8
0
 62
     7
 10
2343.5860411378839672
 20
1573.0419384885649379
 30
0.0
 11
1926.7413483895900299
 21
1573.0419384885649379
 31
0.0
  0
SOLID
  5
57F5
  8
0
 62
     7
 10
2343.5860411378839672
 20
1578.0419384885649379
 30
0.0
 11
2343.5860411378839672
 21
1568.0419384885649379
 31
0.0
 12
2373.5860411378848767
 22
1573.0419384885649379
 32
0.0
 13
2373.5860411378848767
 23
1573.0419384885649379
 33
0.0
  0
TEXT
  5
57F9
  8
0
 62
     7
 10
1841.3255056686120952
 20
1560.3419384885648924
 30
0.0
 40
25.0
  1
968
  0
LINE
  5
57FA
  8
0
 62
     7
 10
2964.9994183367521146
 20
742.8314191751450153
 30
0.0
 11
2932.8261857095640153
 21
771.3640211605298873
 31
0.0
  0
LINE
  5
57FB
  8
0
 62
     7
 10
2987.3532191757640248
 20
781.4139951380561797
 30
0.0
 11
2987.3532191757640248
 21
761.3140471830009801
 31
0.0
  0
LINE
  5
57FC
  8
0
 62
     7
 10
2987.3532191757640248
 20
761.3140471830009801
 30
0.0
 11
2964.9994183367521146
 21
761.3140471830009801
 31
0.0
  0
LINE
  5
57FD
  8
0
 62
     7
 10
2964.9994183367521146
 20
761.3140471830009801
 30
0.0
 11
2964.9994183367521146
 21
742.8314191751450153
 31
0.0
  0
LINE
  5
57FE
  8
0
 62
     7
 10
2964.9994183367521146
 20
799.8966231459129403
 30
0.0
 11
2932.8261857095640153
 21
771.3640211605298873
 31
0.0
  0
LINE
  5
57FF
  8
0
 62
     7
 10
2987.3532191757640248
 20
781.4139951380561797
 30
0.0
 11
2964.9994183367521146
 21
781.4139951380561797
 31
0.0
  0
LINE
  5
5800
  8
0
 62
     7
 10
2964.9994183367521146
 20
781.4139951380561797
 30
0.0
 11
2964.9994183367521146
 21
799.8966231459129403
 31
0.0
  0
LINE
  5
5801
  8
0
 62
     7
 10
3564.6202654760181758
 20
819.9365595017217174
 30
0.0
 11
3532.4470328488350788
 21
848.46916148710784
 31
0.0
  0
LINE
  5
5802
  8
0
 62
     7
 10
3582.0860663150319851
 20
858.5191354646337913
 30
0.0
 11
3582.0860663150319851
 21
838.4191875095782507
 31
0.0
  0
LINE
  5
5803
  8
0
 62
     7
 10
3582.0860663150319851
 20
838.4191875095782507
 30
0.0
 11
3564.6202654760181758
 21
838.4191875095782507
 31
0.0
  0
LINE
  5
5804
  8
0
 62
     7
 10
3564.6202654760181758
 20
838.4191875095782507
 30
0.0
 11
3564.6202654760181758
 21
819.9365595017217174
 31
0.0
  0
LINE
  5
5805
  8
0
 62
     7
 10
3564.6202654760181758
 20
877.001763472490552
 30
0.0
 11
3532.4470328488350788
 21
848.46916148710784
 31
0.0
  0
LINE
  5
5806
  8
0
 62
     7
 10
3582.0860663150319851
 20
858.5191354646337913
 30
0.0
 11
3564.6202654760181758
 21
858.5191354646337913
 31
0.0
  0
LINE
  5
5807
  8
0
 62
     7
 10
3564.6202654760181758
 20
858.5191354646337913
 30
0.0
 11
3564.6202654760181758
 21
877.001763472490552
 31
0.0
  0
LINE
  5
5808
  8
0
 62
     7
 10
2846.0868473805080612
 20
917.062332160871847
 30
0.0
 11
2782.5487598813360819
 21
917.062332160871847
 31
0.0
  0
LINE
  5
5809
  8
0
 62
     7
 10
2802.5487598813369914
 20
887.062332160871847
 30
0.0
 11
2802.5487598813351724
 21
812.6591275856173979
 31
0.0
  0
SOLID
  5
580A
  8
0
 62
     7
 10
2797.5487598813360819
 20
887.062332160871847
 30
0.0
 11
2807.5487598813360819
 21
887.062332160871847
 31
0.0
 12
2802.5487598813369914
 22
917.062332160871847
 32
0.0
 13
2802.5487598813369914
 23
917.062332160871847
 33
0.0
  0
TEXT
  5
580B
  8
0
 62
     7
 10
2815.0487598813351724
 20
739.7432848646401453
 30
0.0
 40
25.0
  1
276
 50
90.0
  0
LINE
  5
580C
  8
0
 62
     7
 10
2846.0868473805080612
 20
641.062332160871847
 30
0.0
 11
2782.5487598813360819
 21
641.062332160871847
 31
0.0
  0
LINE
  5
580D
  8
0
 62
     7
 10
2802.5487598813351724
 20
671.0623321608712786
 30
0.0
 11
2802.5487598813351724
 21
733.4924609189509965
 31
0.0
  0
SOLID
  5
580E
  8
0
 62
     7
 10
2797.5487598813360819
 20
671.0623321608712786
 30
0.0
 11
2807.5487598813360819
 21
671.0623321608712786
 31
0.0
 12
2802.5487598813351724
 22
641.062332160871847
 32
0.0
 13
2802.5487598813351724
 23
641.062332160871847
 33
0.0
  0
LINE
  5
585C
  8
0
 62
     7
 10
3670.0868473805080612
 20
1030.1623321608719834
 30
0.0
 11
3736.6926742171390288
 21
1030.1623321608719834
 31
0.0
  0
LINE
  5
585D
  8
0
 62
     7
 10
3716.692674217142212
 20
1000.1623321608719834
 30
0.0
 11
3716.6926742171399383
 21
885.7996098775256542
 31
0.0
  0
SOLID
  5
585E
  8
0
 62
     7
 10
3711.6926742171390288
 20
1000.1623321608719834
 30
0.0
 11
3721.692674217144031
 21
1000.1623321608719834
 31
0.0
 12
3716.692674217142212
 22
1030.1623321608719834
 32
0.0
 13
3716.692674217142212
 23
1030.1623321608719834
 33
0.0
  0
TEXT
  5
585F
  8
0
 62
     7
 10
3729.1926742171399383
 20
812.8837671565473784
 30
0.0
 40
25.0
  1
359
 50
90.0
  0
LINE
  5
5860
  8
0
 62
     7
 10
3670.0868473805121539
 20
671.1623321608730066
 30
0.0
 11
3736.6926742171390288
 21
671.1623321608730066
 31
0.0
  0
LINE
  5
5861
  8
0
 62
     7
 10
3716.692674217142212
 20
701.1623321608728929
 30
0.0
 11
3716.692674217142212
 21
806.6329432108583433
 31
0.0
  0
SOLID
  5
5862
  8
0
 62
     7
 10
3711.6926742171390288
 20
701.1623321608728929
 30
0.0
 11
3721.692674217144031
 21
701.1623321608728929
 31
0.0
 12
3716.692674217142212
 22
671.1623321608730066
 32
0.0
 13
3716.692674217142212
 23
671.1623321608730066
 33
0.0
  0
LINE
  5
58B4
  8
0
 62
     7
 10
3617.6368473805109716
 20
1055.1623321608719834
 30
0.0
 11
3801.2139230678908461
 21
1055.1623321608719834
 31
0.0
  0
LINE
  5
58B5
  8
0
 62
     7
 10
3781.2139230678890272
 20
1025.1623321608719834
 30
0.0
 11
3781.2139230678890272
 21
926.088410443813018
 31
0.0
  0
SOLID
  5
58B6
  8
0
 62
     7
 10
3776.2139230678908461
 20
1025.1623321608719834
 30
0.0
 11
3786.2139230678940294
 21
1025.1623321608719834
 31
0.0
 12
3781.2139230678972126
 22
1055.1623321608719834
 32
0.0
 13
3781.2139230678972126
 23
1055.1623321608719834
 33
0.0
  0
LINE
  5
58B8
  8
0
 62
     7
 10
3621.0368473805110625
 20
624.1623321608716424
 30
0.0
 11
3801.2139230678908461
 21
624.1623321608716424
 31
0.0
  0
LINE
  5
58B9
  8
0
 62
     7
 10
3781.2139230678972126
 20
654.1623321608717561
 30
0.0
 11
3781.2139230678972126
 21
746.921743777146844
 31
0.0
  0
SOLID
  5
58BA
  8
0
 62
     7
 10
3776.2139230678908461
 20
654.1623321608717561
 30
0.0
 11
3786.2139230678972126
 21
654.1623321608717561
 31
0.0
 12
3781.2139230678972126
 22
624.1623321608716424
 32
0.0
 13
3781.2139230678972126
 23
624.1623321608716424
 33
0.0
  0
TEXT
  5
58BB
  8
0
 62
     7
 10
3793.7139230678931199
 20
753.172567722835538
 30
0.0
 40
25.0
  1
431 O/A
 50
90.0
  0
LINE
  5
5909
  8
0
  6
PHANTOM
 62
     7
 10
3014.0360411378937897
 20
1641.6501991520769934
 30
0.0
 11
3014.0360411378937897
 21
2384.6501991520799493
 31
0.0
  0
LINE
  5
590A
  8
0
  6
PHANTOM
 62
     7
 10
3014.0360411378937897
 20
2384.6501991520799493
 30
0.0
 11
2534.0360411378928802
 21
2384.6501991520799493
 31
0.0
  0
TEXT
  5
590B
  8
0
 62
     7
 10
3055.3257917800879113
 20
1810.278650853309955
 30
0.0
 40
25.0
  1
500 mm CLEARENCE
 50
90.0
  7
TITLE3
  0
LINE
  5
590C
  8
0
  6
PHANTOM
 62
     7
 10
2413.5860411378848767
 20
1641.6501991520769934
 30
0.0
 11
3014.0360411378937897
 21
1641.6501991520769934
 31
0.0
  0
LINE
  5
5967
  8
0
 62
     7
 10
2866.0868473805080612
 20
621.0623321608712786
 30
0.0
 11
2866.0868473805080612
 21
516.2506983474128219
 31
0.0
  0
LINE
  5
5968
  8
0
 62
     7
 10
2896.0868473805080612
 20
536.2506983474129356
 30
0.0
 11
3181.7843911553600265
 21
536.250698347413163
 31
0.0
  0
SOLID
  5
5969
  8
0
 62
     7
 10
2896.0868473805080612
 20
541.2506983474128219
 30
0.0
 11
2896.0868473805080612
 21
531.2506983474128219
 31
0.0
 12
2866.0868473805080612
 22
536.2506983474129356
 32
0.0
 13
2866.0868473805080612
 23
536.2506983474129356
 33
0.0
  0
LINE
  5
596A
  8
0
 62
     7
 10
3650.0868473805107897
 20
650.3263321608723118
 30
0.0
 11
3650.0868473805107897
 21
516.2506983474129356
 31
0.0
  0
LINE
  5
596B
  8
0
 62
     7
 10
3620.0868473805130634
 20
536.2506983474129356
 30
0.0
 11
3360.9510578220238131
 21
536.250698347413163
 31
0.0
  0
SOLID
  5
596C
  8
0
 62
     7
 10
3620.0868473805130634
 20
541.2506983474129356
 30
0.0
 11
3620.0868473805130634
 21
531.2506983474129356
 31
0.0
 12
3650.0868473805107897
 22
536.2506983474129356
 32
0.0
 13
3650.0868473805107897
 23
536.2506983474129356
 33
0.0
  0
TEXT
  5
596E
  8
0
 62
     7
 10
3188.0352151010488342
 20
523.7506983474117987
 30
0.0
 40
25.0
  1
784 O/A
  0
LINE
  5
59BF
  8
0
 62
     7
 10
2393.5860411378889694
 20
1690.1001991520779484
 30
0.0
 11
2393.5860411378889694
 21
1508.6518225811419143
 31
0.0
  0
LINE
  5
59C0
  8
0
 62
     7
 10
2365.536041137887878
 20
1528.6518225811430511
 30
0.0
 11
2019.4379961023601027
 21
1528.6518225811439606
 31
0.0
  0
SOLID
  5
59C1
  8
0
 62
     7
 10
2365.536041137887878
 20
1533.6518225811430511
 30
0.0
 11
2365.536041137887878
 21
1523.6518225811430511
 31
0.0
 12
2393.5860411378889694
 22
1528.6518225811430511
 32
0.0
 13
2393.5860411378889694
 23
1528.6518225811430511
 33
0.0
  0
LINE
  5
59C2
  8
0
 62
     7
 10
1419.5860411378901063
 20
1528.6518225811439606
 30
0.0
 11
1777.6046627690259356
 21
1528.6518225811439606
 31
0.0
  0
SOLID
  5
59C3
  8
0
 62
     7
 10
1419.5860411378901063
 20
1533.6518225811430511
 30
0.0
 11
1419.5860411378901063
 21
1523.6518225811430511
 31
0.0
 12
1389.5860411378889694
 22
1528.6518225811439606
 32
0.0
 13
1389.5860411378889694
 23
1528.6518225811439606
 33
0.0
  0
TEXT
  5
59C4
  8
0
 62
     7
 10
1779.8554867147140612
 20
1515.9518225811430057
 30
0.0
 40
25.0
  1
1003 CTRS
  0
LINE
  5
5A12
  8
0
 62
     7
 10
2924.2368473805099711
 20
1071.8623321608720289
 30
0.0
 11
2924.2368473805099711
 21
1137.4921560517320813
 31
0.0
  0
LINE
  5
5A13
  8
0
 62
     7
 10
2954.2368473805090616
 20
1117.492156051730035
 30
0.0
 11
3147.7691576994980096
 21
1117.492156051730035
 31
0.0
  0
SOLID
  5
5A14
  8
0
 62
     7
 10
2954.2368473805090616
 20
1122.4921560517320813
 30
0.0
 11
2954.2368473805090616
 21
1112.4921560517320813
 31
0.0
 12
2924.2368473805099711
 22
1117.492156051730035
 32
0.0
 13
2924.2368473805099711
 23
1117.492156051730035
 33
0.0
  0
LINE
  5
5A15
  8
0
 62
     7
 10
3590.2368473805090616
 20
1071.8623321608720289
 30
0.0
 11
3590.2368473805090616
 21
1137.4921560517320813
 31
0.0
  0
LINE
  5
5A16
  8
0
 62
     7
 10
3560.2368473805117901
 20
1117.492156051730035
 30
0.0
 11
3352.154460564107012
 21
1117.492156051730035
 31
0.0
  0
SOLID
  5
5A17
  8
0
 62
     7
 10
3560.2368473805117901
 20
1122.4921560517320813
 30
0.0
 11
3560.2368473805117901
 21
1112.4921560517320813
 31
0.0
 12
3590.2368473805090616
 22
1117.492156051730035
 32
0.0
 13
3590.2368473805090616
 23
1117.492156051730035
 33
0.0
  0
TEXT
  5
5A18
  8
0
 62
     7
 10
3154.0199816451849983
 20
1105.3921560517319449
 30
0.0
 40
25.0
  1
666 CTRS
  0
LINE
  5
5A67
  8
0
 62
     7
 10
1266.5860411378889694
 20
2379.2001991520810407
 30
0.0
 11
1266.5860411378889694
 21
2588.959510282571955
 31
0.0
  0
TEXT
  5
5A6A
  8
0
 62
     7
 10
1780.1986748392450863
 20
2540.8594809006181094
 30
0.0
 40
25.0
  1
1243 CTRS
  0
LINE
  5
5A6C
  8
0
 62
     7
 10
2509.5860411378898789
 20
2379.2001991520810407
 30
0.0
 11
2509.5860411378898789
 21
2588.959510282571955
 31
0.0
  0
LINE
  5
5A6D
  8
0
 62
     7
 10
2479.5860411378889694
 20
2552.9594809006180185
 30
0.0
 11
1995.1591647604871014
 21
2552.9594809006180185
 31
0.0
  0
SOLID
  5
5A6E
  8
0
 62
     7
 10
2479.5860411378889694
 20
2557.959480900618928
 30
0.0
 11
2479.5860411378889694
 21
2547.9594809006180185
 31
0.0
 12
2509.5860411378898789
 22
2552.9594809006180185
 32
0.0
 13
2509.5860411378898789
 23
2552.9594809006180185
 33
0.0
  0
LINE
  5
5D99
  8
0
 62
     7
 10
1296.5860411378889694
 20
2552.9594809006180185
 30
0.0
 11
1773.9478508935549144
 21
2552.9594809006180185
 31
0.0
  0
SOLID
  5
5D9A
  8
0
 62
     7
 10
1296.5860411378889694
 20
2557.959480900618928
 30
0.0
 11
1296.5860411378889694
 21
2547.9594809006180185
 31
0.0
 12
1266.5860411378889694
 22
2552.9594809006180185
 32
0.0
 13
1266.5860411378889694
 23
2552.9594809006180185
 33
0.0
  0
LINE
  5
5D9B
  8
0
 10
2514.0360411378928802
 20
624.1623321608717561
 30
0.0
 11
1262.1360411378889239
 21
624.1623321608717561
 31
0.0
  0
LINE
  5
5D9E
  8
0
 10
1262.1360411378889239
 20
649.1623321608717561
 30
0.0
 11
1262.1360411378889239
 21
624.1623321608717561
 31
0.0
  0
LINE
  5
5D9F
  8
0
 10
2514.0360411378928802
 20
649.1623321608717561
 30
0.0
 11
2514.0360411378928802
 21
624.1623321608717561
 31
0.0
  0
LINE
  5
5DA0
  8
0
 10
1282.0860411378901063
 20
1055.1623321608719834
 30
0.0
 11
1282.0860411378901063
 21
624.1623321608717561
 31
0.0
  0
LINE
  5
5DA1
  8
0
 10
1282.0860411378901063
 20
649.1623321608717561
 30
0.0
 11
1262.1360411378889239
 21
649.1623321608717561
 31
0.0
  0
LINE
  5
5DA2
  8
0
 10
2494.0860411378898789
 20
677.3923321608718879
 30
0.0
 11
2561.1360411378918798
 21
677.3923321608718879
 31
0.0
  0
LINE
  5
5DA3
  8
0
 10
2561.1360411378918798
 20
676.3923321608724564
 30
0.0
 11
2577.1360411378918798
 21
676.3923321608724564
 31
0.0
  0
LINE
  5
5DA4
  8
0
 10
2494.0860411378898789
 20
699.392332160872229
 30
0.0
 11
2561.1360411378918798
 21
699.392332160872229
 31
0.0
  0
LINE
  5
5DA5
  8
0
 10
2561.1360411378918798
 20
700.3923321608715469
 30
0.0
 11
2577.1360411378918798
 21
700.3923321608715469
 31
0.0
  0
LINE
  5
5DA6
  8
0
 10
2577.1360411378918798
 20
700.3923321608715469
 30
0.0
 11
2577.1360411378918798
 21
676.3923321608724564
 31
0.0
  0
LINE
  5
5DA7
  8
0
 10
2561.1360411378918798
 20
700.3923321608715469
 30
0.0
 11
2561.1360411378918798
 21
676.3923321608724564
 31
0.0
  0
LINE
  5
5DA8
  8
0
 10
2494.0860411378898789
 20
759.8843665104870979
 30
0.0
 11
2564.4360411378897879
 21
759.8843665104870979
 31
0.0
  0
LINE
  5
5DA9
  8
0
 10
2564.4360411378897879
 20
758.8843665104864158
 30
0.0
 11
2577.1360411378918798
 21
758.8843665104864158
 31
0.0
  0
LINE
  5
5DAA
  8
0
 10
2494.0860411378898789
 20
772.5843665104866886
 30
0.0
 11
2564.4360411378897879
 21
772.5843665104870297
 31
0.0
  0
LINE
  5
5DAB
  8
0
 10
2564.4360411378897879
 20
773.5843665104870297
 30
0.0
 11
2577.1360411378918798
 21
773.5843665104870297
 31
0.0
  0
LINE
  5
5DAD
  8
0
 10
2577.1360411378918798
 20
773.5843665104870297
 30
0.0
 11
2577.1360411378918798
 21
758.8843665104864158
 31
0.0
  0
LINE
  5
5DAE
  8
0
 10
2514.0360411378928802
 20
624.9983321608724509
 30
0.0
 11
2542.0360411378928802
 21
624.9983321608717688
 31
0.0
  0
LINE
  5
5DAF
  8
0
 10
2536.0300411378898389
 20
640.9983321608724509
 30
0.0
 11
2542.0360411378928802
 21
640.9983321608724509
 31
0.0
  0
LINE
  5
5DB0
  8
0
 10
2542.0360411378928802
 20
640.9983321608717688
 30
0.0
 11
2542.0360411378928802
 21
624.9983321608717688
 31
0.0
  0
LINE
  5
5DB1
  8
0
 10
2514.0360411378928802
 20
639.1623321608719834
 30
0.0
 11
2536.0300411378898389
 21
639.1623321608719834
 31
0.0
  0
LINE
  5
5DB2
  8
0
 10
2494.0860411378898789
 20
659.1623321608719834
 30
0.0
 11
2536.0300411378898389
 21
659.1623321608719834
 31
0.0
  0
LINE
  5
5DB3
  8
0
 10
2536.0300411378898389
 20
659.1623321608719834
 30
0.0
 11
2536.0300411378898389
 21
639.1623321608719834
 31
0.0
  0
LINE
  5
5DB5
  8
0
 10
2494.0860411378898789
 20
1055.1623321608719834
 30
0.0
 11
2523.5860411378898789
 21
1055.1623321608719834
 31
0.0
  0
LINE
  5
5DB6
  8
0
 10
2496.5860411378898789
 20
1052.6623321608710739
 30
0.0
 11
2523.5860411378898789
 21
1052.6623321608710739
 31
0.0
  0
LINE
  5
5DB7
  8
0
 10
2523.5860411378898789
 20
1055.1623321608719834
 30
0.0
 11
2523.5860411378898789
 21
1052.6623321608710739
 31
0.0
  0
LINE
  5
5DB8
  8
0
 10
2509.5860411378898789
 20
1060.1623321608719834
 30
0.0
 11
2509.5860411378898789
 21
1047.6623321608719834
 31
0.0
  0
LINE
  5
5DB9
  8
0
 10
1279.5860411378910158
 20
1052.6623321608710739
 30
0.0
 11
1279.5860411378910158
 21
959.7623321608722335
 31
0.0
  0
LINE
  5
5DBA
  8
0
 10
1282.0860411378901063
 20
1055.1623321608719834
 30
0.0
 11
1252.5860411378889694
 21
1055.1623321608719834
 31
0.0
  0
LINE
  5
5DBB
  8
0
 10
1279.5860411378910158
 20
1052.6623321608710739
 30
0.0
 11
1252.5860411378889694
 21
1052.6623321608710739
 31
0.0
  0
LINE
  5
5DBD
  8
0
 10
1252.5860411378889694
 20
1055.1623321608719834
 30
0.0
 11
1252.5860411378889694
 21
1052.6623321608710739
 31
0.0
  0
LINE
  5
5DBE
  8
0
 10
1266.5860411378889694
 20
1060.1623321608719834
 30
0.0
 11
1266.5860411378889694
 21
1047.6623321608719834
 31
0.0
  0
LINE
  5
5DBF
  8
0
 10
2373.5860411378889694
 20
1033.212332160871938
 30
0.0
 11
2373.5860411378907884
 21
635.1123321608722563
 31
0.0
  0
LINE
  5
5DC0
  8
0
 10
1405.5860411378889694
 20
1041.8086217760519503
 30
0.0
 11
1405.5860411378889694
 21
635.1123321608722563
 31
0.0
  0
LINE
  5
5DC1
  8
0
 10
2373.5860411378907884
 20
635.1123321608722563
 30
0.0
 11
1405.5860411378889694
 21
635.1123321608722563
 31
0.0
  0
LINE
  5
5DC2
  8
0
 10
2373.5860411378889694
 20
1041.8086217760519503
 30
0.0
 11
1405.5860411378889694
 21
1041.8086217760519503
 31
0.0
  0
LINE
  5
5DC3
  8
0
 10
2372.5860411378898789
 20
641.062332160871847
 30
0.0
 11
1406.5860411378889694
 21
641.062332160871847
 31
0.0
  0
LINE
  5
5DC4
  8
0
 10
2372.5860411378898789
 20
903.0553321608723536
 30
0.0
 11
1406.5860411378889694
 21
903.0553321608723536
 31
0.0
  0
LINE
  5
5DC5
  8
0
 10
1406.5860411378889694
 20
903.0553321608723536
 30
0.0
 11
1406.5860411378889694
 21
641.062332160871847
 31
0.0
  0
LINE
  5
5DC6
  8
0
 10
2372.5860411378898789
 20
903.0553321608723536
 30
0.0
 11
2372.5860411378898789
 21
641.062332160871847
 31
0.0
  0
LINE
  5
5DC8
  8
0
 10
2449.5860411378857862
 20
1028.477332160872038
 30
0.0
 11
2373.5860411378889694
 21
1028.477332160872038
 31
0.0
  0
LINE
  5
5DCB
  8
0
 10
1405.5860411378889694
 20
1055.1623321608719834
 30
0.0
 11
1405.5860411378889694
 21
959.7623321608722335
 31
0.0
  0
LINE
  5
5DD3
  8
0
 10
2373.5860411378889694
 20
1055.1623321608719834
 30
0.0
 11
2373.5860411378889694
 21
959.7623321608722335
 31
0.0
  0
LINE
  5
5DD4
  8
0
 10
2376.0860411378898789
 20
1052.6623321608710739
 30
0.0
 11
2376.0860411378898789
 21
959.7623321608722335
 31
0.0
  0
LINE
  5
5DD5
  8
0
 10
2373.5860411378889694
 20
1055.1623321608719834
 30
0.0
 11
2407.5860411378889694
 21
1055.1623321608719834
 31
0.0
  0
LINE
  5
5DD6
  8
0
 10
2376.0860411378898789
 20
1052.6623321608710739
 30
0.0
 11
2407.5860411378889694
 21
1052.6623321608710739
 31
0.0
  0
LINE
  5
5DD7
  8
0
 10
2407.5860411378889694
 20
1055.1623321608719834
 30
0.0
 11
2407.5860411378889694
 21
1052.6623321608710739
 31
0.0
  0
LINE
  5
5DD8
  8
0
 10
2373.5860411378889694
 20
959.7623321608722335
 30
0.0
 11
2376.0860411378898789
 21
959.7623321608722335
 31
0.0
  0
LINE
  5
5DD9
  8
0
 10
2393.5860411378889694
 20
1060.1623321608719834
 30
0.0
 11
2393.5860411378889694
 21
1047.6623321608719834
 31
0.0
  0
LINE
  5
5DDA
  8
0
 10
2494.0860411378848767
 20
1044.1623321608719834
 30
0.0
 11
1282.0860411378901063
 21
1044.1623321608719834
 31
0.0
  0
LINE
  5
5DE8
  8
0
  6
HIDDEN
 62
     7
 10
2373.5860411378889694
 20
958.7623321608704146
 30
0.0
 11
2373.5860411378889694
 21
1006.2623321608699598
 31
0.0
  0
LINE
  5
5E06
  8
0
  6
HIDDEN
 62
     7
 10
1405.5860411378889694
 20
958.7623321608704146
 30
0.0
 11
1405.5860411378889694
 21
1006.2623321608699598
 31
0.0
  0
TEXT
  5
5E17
  8
0
 10
1735.1303900495261132
 20
758.7444947434516962
 30
0.0
 40
37.5
  1
ISD 171LYX
  7
TITLE3
  0
LINE
  5
5E18
  8
0
 62
     7
 10
1262.1360411378889239
 20
604.1623321608718697
 30
0.0
 11
1262.1360411378889239
 21
516.2506983474129356
 31
0.0
  0
LINE
  5
5E19
  8
0
 62
     7
 10
1292.1360411378889239
 20
536.250698347413163
 30
0.0
 11
1837.6711354188739733
 21
536.2506983474132767
 31
0.0
  0
SOLID
  5
5E1A
  8
0
 62
     7
 10
1292.1360411378889239
 20
541.2506983474129356
 30
0.0
 11
1292.1360411378889239
 21
531.2506983474129356
 31
0.0
 12
1262.1360411378889239
 22
536.250698347413163
 32
0.0
 13
1262.1360411378889239
 23
536.250698347413163
 33
0.0
  0
LINE
  5
5E1B
  8
0
 62
     7
 10
2577.1360411378918798
 20
656.8372906806257561
 30
0.0
 11
2577.1360411378918798
 21
516.2506983474129356
 31
0.0
  0
LINE
  5
5E1C
  8
0
 62
     7
 10
2547.1360411378909703
 20
536.2506983474132767
 30
0.0
 11
2032.4185380304609225
 21
536.2506983474132767
 31
0.0
  0
SOLID
  5
5E1D
  8
0
 62
     7
 10
2547.1360411378909703
 20
541.2506983474129356
 30
0.0
 11
2547.1360411378909703
 21
531.2506983474129356
 31
0.0
 12
2577.1360411378918798
 22
536.250698347413163
 32
0.0
 13
2577.1360411378918798
 23
536.250698347413163
 33
0.0
  0
TEXT
  5
5E1E
  8
0
 62
     7
 10
1843.9219593645630084
 20
523.7506983474122535
 30
0.0
 40
25.0
  1
1315 O/A
  0
LINE
  5
5E36
  8
0
 10
2514.0360411378928802
 20
649.1623321608717561
 30
0.0
 11
2382.5860411378907884
 21
649.1623321608717561
 31
0.0
  0
LINE
  5
5E3A
  8
0
  6
HIDDEN
 62
     7
 10
2494.0860411378889694
 20
958.7623321608704146
 30
0.0
 11
2494.0860411378889694
 21
1006.2623321608699598
 31
0.0
  0
LINE
  5
5F0B
  8
0
 62
     7
 10
1235.0860411378889694
 20
956.2623321608701872
 30
0.0
 11
1235.0860411378889694
 21
1219.9668517125180642
 31
0.0
  0
LINE
  5
5F0C
  8
0
 62
     7
 10
1265.0860411378889694
 20
1199.9668517125180642
 30
0.0
 11
1522.0574437006439439
 21
1199.9668517125180642
 31
0.0
  0
SOLID
  5
5F0D
  8
0
 62
     7
 10
1265.0860411378889694
 20
1204.9668517125180642
 30
0.0
 11
1265.0860411378889694
 21
1194.9668517125180642
 31
0.0
 12
1235.0860411378889694
 22
1199.9668517125180642
 32
0.0
 13
1235.0860411378889694
 23
1199.9668517125180642
 33
0.0
  0
LINE
  5
5F0F
  8
0
 62
     7
 10
2511.0860411378871504
 20
1199.9668517125201106
 30
0.0
 11
2266.5553291033970709
 21
1199.9668517125201106
 31
0.0
  0
SOLID
  5
5F10
  8
0
 62
     7
 10
2511.0860411378871504
 20
1204.9668517125180642
 30
0.0
 11
2511.0860411378871504
 21
1194.9668517125180642
 31
0.0
 12
2541.0860411378848767
 22
1199.9668517125180642
 32
0.0
 13
2541.0860411378848767
 23
1199.9668517125180642
 33
0.0
  0
TEXT
  5
5F11
  8
0
 62
     7
 10
1528.308267646332979
 20
1187.4668517125180642
 30
0.0
 40
25.0
  1
1306 (SPRING MTG CTRS - OPTION)
  0
LINE
  5
5F12
  8
0
 62
     7
 10
1357.3260411378889785
 20
956.2623321608695051
 30
0.0
 11
1357.3260411378889785
 21
1160.8150777158609799
 31
0.0
  0
LINE
  5
5F13
  8
0
 62
     7
 10
1387.326041137888069
 20
1140.8150777158609799
 30
0.0
 11
1527.5014179304630488
 21
1140.8150777158618894
 31
0.0
  0
SOLID
  5
5F14
  8
0
 62
     7
 10
1387.326041137888069
 20
1145.8150777158609799
 30
0.0
 11
1387.326041137888069
 21
1135.8150777158609799
 31
0.0
 12
1357.3260411378889785
 22
1140.8150777158618894
 32
0.0
 13
1357.3260411378889785
 23
1140.8150777158618894
 33
0.0
  0
TEXT
  5
5F15
  8
0
 62
     7
 10
1535.2622418761520748
 20
1128.3150777158609799
 30
0.0
 40
25.0
  1
1066 (SPRING MTG CTRS - OPTION)
  0
LINE
  5
5F16
  8
0
 62
     7
 10
2424.5832951357378988
 20
956.2623321608690503
 30
0.0
 11
2424.5832951357378988
 21
1160.8150777158600704
 31
0.0
  0
LINE
  5
5F17
  8
0
 62
     7
 10
2394.5832951357388083
 20
1140.8150777158618894
 30
0.0
 11
2261.5445335118361072
 21
1140.8150777158618894
 31
0.0
  0
SOLID
  5
5F18
  8
0
 62
     7
 10
2394.5832951357388083
 20
1145.8150777158600704
 30
0.0
 11
2394.5832951357388083
 21
1135.8150777158600704
 31
0.0
 12
2424.5832951357378988
 22
1140.8150777158618894
 32
0.0
 13
2424.5832951357378988
 23
1140.8150777158618894
 33
0.0
  0
ARC
  5
5F1C
  8
0
  6
HIDDEN
 62
     7
 10
1259.5860411378901063
 20
958.7623321608700735
 30
0.0
 40
22.5
 50
270.0
 51
0.000000000000007
  0
ARC
  5
5F1D
  8
0
  6
HIDDEN
 62
     7
 10
1259.5860411378901063
 20
958.7623321608700735
 30
0.0
 40
10.0
 50
270.0
 51
0.000000000000007
  0
LINE
  5
5F1E
  8
0
  6
HIDDEN
 62
     7
 10
1259.5860411378901063
 20
948.7623321608700735
 30
0.0
 11
1217.0860411378880599
 21
948.7623321608700735
 31
0.0
  0
LINE
  5
5F1F
  8
0
  6
HIDDEN
 62
     7
 10
1252.5860411378889694
 20
929.2623321608720062
 30
0.0
 11
1217.5860411378901063
 21
929.2623321608720062
 31
0.0
  0
LINE
  5
5F20
  8
0
  6
HIDDEN
 62
     7
 10
1259.5860411378901063
 20
936.2623321608721199
 30
0.0
 11
1217.0860411378880599
 21
936.2623321608721199
 31
0.0
  0
LINE
  5
5F21
  8
0
  6
HIDDEN
 62
     7
 10
1217.0860411378880599
 20
936.2623321608721199
 30
0.0
 11
1217.0860411378880599
 21
948.7623321608700735
 31
0.0
  0
LINE
  5
5F22
  8
0
  6
HIDDEN
 62
     7
 10
1217.5860411378901063
 20
929.2623321608700735
 30
0.0
 11
1217.5860411378901063
 21
932.2623321608720062
 31
0.0
  0
ARC
  5
5F23
  8
0
  6
HIDDEN
 62
     7
 10
1221.5860411378901063
 20
932.2623321608720062
 30
0.0
 40
4.0
 50
90.0
 51
180.0
  0
LINE
  5
5F24
  8
0
  6
HIDDEN
 62
     7
 10
1235.0860411378889694
 20
929.2623321608720062
 30
0.0
 11
1235.0860411378889694
 21
938.934533206457445
 31
0.0
  0
ARC
  5
5F26
  8
0
  6
HIDDEN
 62
     7
 10
1248.5860411378889694
 20
932.2623321608720062
 30
0.0
 40
4.0
 50
0.000000000000007
 51
90.0
  0
LINE
  5
5F27
  8
0
  6
HIDDEN
 62
     7
 10
1282.0860411378901063
 20
1006.2623321608699598
 30
0.0
 11
1269.5860411378901063
 21
1006.2623321608699598
 31
0.0
  0
LINE
  5
5F28
  8
0
  6
HIDDEN
 62
     7
 10
1269.5860411378901063
 20
958.7623321608700735
 30
0.0
 11
1269.5860411378901063
 21
1006.2623321608699598
 31
0.0
  0
POINT
  5
5F2A
  8
0
  6
HIDDEN
 62
     7
 10
1235.0860411378889694
 20
936.2623321608721199
 30
0.0
 50
0.000000000000007
  0
LINE
  5
5F2B
  8
0
 10
1403.0860411378889694
 20
1052.6623321608710739
 30
0.0
 11
1403.0860411378889694
 21
959.7623321608722335
 31
0.0
  0
LINE
  5
5F2C
  8
0
 10
1405.5860411378889694
 20
1055.1623321608719834
 30
0.0
 11
1371.5860411378889694
 21
1055.1623321608719834
 31
0.0
  0
LINE
  5
5F2D
  8
0
 10
1403.0860411378889694
 20
1052.6623321608710739
 30
0.0
 11
1371.5860411378889694
 21
1052.6623321608710739
 31
0.0
  0
LINE
  5
5F2E
  8
0
 10
1405.5860411378889694
 20
959.7623321608722335
 30
0.0
 11
1403.0860411378889694
 21
959.7623321608722335
 31
0.0
  0
LINE
  5
5F2F
  8
0
 10
1371.5860411378889694
 20
1055.1623321608719834
 30
0.0
 11
1371.5860411378889694
 21
1052.6623321608710739
 31
0.0
  0
LINE
  5
5F30
  8
0
 10
1389.5860411378889694
 20
1060.1623321608719834
 30
0.0
 11
1389.5860411378889694
 21
1047.6623321608719834
 31
0.0
  0
LINE
  5
5F31
  8
0
  6
HIDDEN
 62
     7
 10
1405.5860411378889694
 20
958.7623321608700735
 30
0.0
 11
1405.5860411378889694
 21
1006.2623321608699598
 31
0.0
  0
ARC
  5
5F32
  8
0
  6
HIDDEN
 62
     7
 10
1381.5760411378889785
 20
958.7623321608700735
 30
0.0
 40
22.5
 50
270.0
 51
0.000000000000007
  0
ARC
  5
5F33
  8
0
  6
HIDDEN
 62
     7
 10
1381.5760411378889785
 20
958.7623321608700735
 30
0.0
 40
10.0
 50
270.0
 51
0.000000000000007
  0
LINE
  5
5F34
  8
0
  6
HIDDEN
 62
     7
 10
1381.5760411378889785
 20
948.7623321608700735
 30
0.0
 11
1339.3260411378889785
 21
948.7623321608700735
 31
0.0
  0
LINE
  5
5F35
  8
0
  6
HIDDEN
 62
     7
 10
1374.826041137889888
 20
929.2623321608720062
 30
0.0
 11
1339.826041137889888
 21
929.2623321608720062
 31
0.0
  0
LINE
  5
5F36
  8
0
  6
HIDDEN
 62
     7
 10
1381.5760411378889785
 20
936.2623321608721199
 30
0.0
 11
1339.3260411378889785
 21
936.2623321608721199
 31
0.0
  0
LINE
  5
5F37
  8
0
  6
HIDDEN
 62
     7
 10
1339.3260411378889785
 20
936.2623321608721199
 30
0.0
 11
1339.3260411378889785
 21
948.7623321608700735
 31
0.0
  0
LINE
  5
5F38
  8
0
  6
HIDDEN
 62
     7
 10
1339.826041137889888
 20
929.2623321608700735
 30
0.0
 11
1339.826041137889888
 21
932.2623321608720062
 31
0.0
  0
ARC
  5
5F39
  8
0
  6
HIDDEN
 62
     7
 10
1343.8260411378889785
 20
932.2623321608720062
 30
0.0
 40
4.0
 50
90.0
 51
180.0
  0
LINE
  5
5F3A
  8
0
  6
HIDDEN
 62
     7
 10
1357.3260411378889785
 20
929.2623321608720062
 30
0.0
 11
1357.3260411378889785
 21
938.934533206457445
 31
0.0
  0
LINE
  5
5F3B
  8
0
  6
HIDDEN
 62
     7
 10
1374.826041137889888
 20
929.2623321608700735
 30
0.0
 11
1374.826041137889888
 21
932.2623321608720062
 31
0.0
  0
ARC
  5
5F3C
  8
0
  6
HIDDEN
 62
     7
 10
1370.8260411378889785
 20
932.2623321608720062
 30
0.0
 40
4.0
 50
0.000000000000007
 51
90.0
  0
LINE
  5
5F3D
  8
0
  6
HIDDEN
 62
     7
 10
1404.076041137888069
 20
1006.2623321608699598
 30
0.0
 11
1391.576041137889888
 21
1006.2623321608699598
 31
0.0
  0
LINE
  5
5F3E
  8
0
  6
HIDDEN
 62
     7
 10
1391.576041137889888
 20
958.7623321608700735
 30
0.0
 11
1391.576041137889888
 21
1006.2623321608699598
 31
0.0
  0
LINE
  5
5F3F
  8
0
  6
HIDDEN
 62
     7
 10
1405.5860411378889694
 20
958.7623321608700735
 30
0.0
 11
1405.5860411378889694
 21
1006.2623321608699598
 31
0.0
  0
POINT
  5
5F40
  8
0
  6
HIDDEN
 62
     7
 10
1357.3260411378889785
 20
936.2623321608721199
 30
0.0
 50
0.000000000000007
  0
LINE
  5
5F41
  8
0
  6
HIDDEN
 62
     7
 10
2494.0860411378889694
 20
958.7623321608704146
 30
0.0
 11
2494.0860411378889694
 21
1006.2623321608699598
 31
0.0
  0
LINE
  5
5F42
  8
0
  6
HIDDEN
 62
     7
 10
2494.0860411378889694
 20
958.7623321608700735
 30
0.0
 11
2494.0860411378889694
 21
1006.2623321608699598
 31
0.0
  0
ARC
  5
5F43
  8
0
  6
HIDDEN
 62
     7
 10
2516.5860411378857862
 20
958.7623321608700735
 30
0.0
 40
22.5
 50
180.0
 51
270.0
  0
ARC
  5
5F44
  8
0
  6
HIDDEN
 62
     7
 10
2516.5860411378857862
 20
958.7623321608700735
 30
0.0
 40
10.0
 50
180.0
 51
270.0
  0
LINE
  5
5F45
  8
0
  6
HIDDEN
 62
     7
 10
2516.5860411378857862
 20
948.7623321608700735
 30
0.0
 11
2559.0860411378871504
 21
948.7623321608700735
 31
0.0
  0
LINE
  5
5F46
  8
0
  6
HIDDEN
 62
     7
 10
2523.5860411378857862
 20
929.2623321608720062
 30
0.0
 11
2558.5860411378857862
 21
929.2623321608720062
 31
0.0
  0
LINE
  5
5F47
  8
0
  6
HIDDEN
 62
     7
 10
2516.5860411378857862
 20
936.2623321608721199
 30
0.0
 11
2559.0860411378871504
 21
936.2623321608721199
 31
0.0
  0
LINE
  5
5F48
  8
0
  6
HIDDEN
 62
     7
 10
2559.0860411378871504
 20
936.2623321608721199
 30
0.0
 11
2559.0860411378871504
 21
948.7623321608700735
 31
0.0
  0
LINE
  5
5F49
  8
0
  6
HIDDEN
 62
     7
 10
2558.5860411378857862
 20
929.2623321608700735
 30
0.0
 11
2558.5860411378857862
 21
932.2623321608720062
 31
0.0
  0
ARC
  5
5F4A
  8
0
  6
HIDDEN
 62
     7
 10
2554.5860411378857862
 20
932.2623321608720062
 30
0.0
 40
4.0
 50
0.000000000000007
 51
90.0
  0
LINE
  5
5F4B
  8
0
  6
HIDDEN
 62
     7
 10
2541.0860411378848767
 20
929.2623321608720062
 30
0.0
 11
2541.0860411378848767
 21
938.934533206457445
 31
0.0
  0
LINE
  5
5F4C
  8
0
  6
HIDDEN
 62
     7
 10
2523.5860411378857862
 20
929.2623321608700735
 30
0.0
 11
2523.5860411378857862
 21
932.2623321608720062
 31
0.0
  0
ARC
  5
5F4D
  8
0
  6
HIDDEN
 62
     7
 10
2527.5860411378889694
 20
932.2623321608720062
 30
0.0
 40
4.0
 50
90.0
 51
180.0
  0
LINE
  5
5F4E
  8
0
  6
HIDDEN
 62
     7
 10
2494.0860411378889694
 20
1006.2623321608699598
 30
0.0
 11
2506.5860411378889694
 21
1006.2623321608699598
 31
0.0
  0
LINE
  5
5F4F
  8
0
  6
HIDDEN
 62
     7
 10
2506.5860411378889694
 20
958.7623321608700735
 30
0.0
 11
2506.5860411378889694
 21
1006.2623321608699598
 31
0.0
  0
LINE
  5
5F50
  8
0
  6
HIDDEN
 62
     7
 10
2494.0860411378889694
 20
958.7623321608700735
 30
0.0
 11
2494.0860411378889694
 21
1006.2623321608699598
 31
0.0
  0
POINT
  5
5F51
  8
0
  6
HIDDEN
 62
     7
 10
2541.0860411378848767
 20
936.2623321608721199
 30
0.0
 50
180.0
  0
LINE
  5
5F52
  8
0
  6
HIDDEN
 62
     7
 10
2373.5860411378889694
 20
958.762332160869164
 30
0.0
 11
2373.5860411378889694
 21
1006.2623321608690503
 31
0.0
  0
LINE
  5
5F53
  8
0
  6
HIDDEN
 62
     7
 10
2373.5860411378889694
 20
958.7623321608687093
 30
0.0
 11
2373.5860411378889694
 21
1006.2623321608690503
 31
0.0
  0
ARC
  5
5F54
  8
0
  6
HIDDEN
 62
     7
 10
2396.0860411378889694
 20
958.762332160869164
 30
0.0
 40
22.5
 50
180.0
 51
270.0
  0
ARC
  5
5F55
  8
0
  6
HIDDEN
 62
     7
 10
2396.0860411378889694
 20
958.762332160869164
 30
0.0
 40
10.0
 50
180.0
 51
270.0
  0
LINE
  5
5F56
  8
0
  6
HIDDEN
 62
     7
 10
2396.0860411378889694
 20
948.762332160869164
 30
0.0
 11
2442.3360411378898789
 21
948.762332160869164
 31
0.0
  0
LINE
  5
5F57
  8
0
  6
HIDDEN
 62
     7
 10
2406.8360411378857862
 20
929.262332160871324
 30
0.0
 11
2441.8360411378889694
 21
929.262332160871324
 31
0.0
  0
LINE
  5
5F58
  8
0
  6
HIDDEN
 62
     7
 10
2396.0860411378889694
 20
936.2623321608706419
 30
0.0
 11
2442.3360411378898789
 21
936.2623321608706419
 31
0.0
  0
LINE
  5
5F59
  8
0
  6
HIDDEN
 62
     7
 10
2442.3360411378898789
 20
936.2623321608706419
 30
0.0
 11
2442.3360411378898789
 21
948.762332160869164
 31
0.0
  0
LINE
  5
5F5A
  8
0
  6
HIDDEN
 62
     7
 10
2441.8360411378889694
 20
929.262332160869164
 30
0.0
 11
2441.8360411378889694
 21
932.262332160871324
 31
0.0
  0
ARC
  5
5F5B
  8
0
  6
HIDDEN
 62
     7
 10
2437.8360411378889694
 20
932.262332160871324
 30
0.0
 40
4.0
 50
0.000000000000007
 51
90.0
  0
LINE
  5
5F5C
  8
0
  6
HIDDEN
 62
     7
 10
2424.3360411378889694
 20
929.262332160871324
 30
0.0
 11
2424.3360411378889694
 21
938.9345332064567629
 31
0.0
  0
LINE
  5
5F5D
  8
0
  6
HIDDEN
 62
     7
 10
2406.8360411378857862
 20
929.262332160869164
 30
0.0
 11
2406.8360411378857862
 21
932.262332160871324
 31
0.0
  0
ARC
  5
5F5E
  8
0
  6
HIDDEN
 62
     7
 10
2410.8360411378871504
 20
932.262332160871324
 30
0.0
 40
4.0
 50
90.0
 51
180.0
  0
LINE
  5
5F5F
  8
0
  6
HIDDEN
 62
     7
 10
2373.5860411378889694
 20
1006.2623321608690503
 30
0.0
 11
2386.0860411378889694
 21
1006.2623321608690503
 31
0.0
  0
LINE
  5
5F60
  8
0
  6
HIDDEN
 62
     7
 10
2386.0860411378889694
 20
958.762332160869164
 30
0.0
 11
2386.0860411378889694
 21
1006.2623321608690503
 31
0.0
  0
LINE
  5
5F61
  8
0
  6
HIDDEN
 62
     7
 10
2373.5860411378889694
 20
958.762332160869164
 30
0.0
 11
2373.5860411378889694
 21
1006.2623321608690503
 31
0.0
  0
POINT
  5
5F62
  8
0
  6
HIDDEN
 62
     7
 10
2424.3360411378889694
 20
936.2623321608706419
 30
0.0
 50
180.0
  0
LINE
  5
5F70
  8
0
 62
     7
 10
1389.5860411378889694
 20
1690.1001991520779484
 30
0.0
 11
1389.5860411378889694
 21
1508.6518225811419143
 31
0.0
  0
LINE
  5
6368
  8
0
 10
2564.4360411378897879
 20
773.5843665104870297
 30
0.0
 11
2564.4360411378897879
 21
758.8843665104864158
 31
0.0
  0
LINE
  5
636A
  8
0
 10
2494.0860411378898789
 20
2142.7101991520771662
 30
0.0
 11
2561.1360411378918798
 21
2142.7101991520771662
 31
0.0
  0
LINE
  5
636B
  8
0
 10
2561.1360411378918798
 20
2141.7101991520780757
 30
0.0
 11
2577.1360411378918798
 21
2141.7101991520780757
 31
0.0
  0
LINE
  5
636C
  8
0
 10
2494.0860411378898789
 20
2164.710199152075802
 30
0.0
 11
2561.1360411378918798
 21
2164.7101991520780757
 31
0.0
  0
LINE
  5
636D
  8
0
 10
2561.1360411378918798
 20
2165.7101991520780757
 30
0.0
 11
2577.1360411378918798
 21
2165.7101991520780757
 31
0.0
  0
LINE
  5
636E
  8
0
 10
2577.1360411378918798
 20
2165.7101991520780757
 30
0.0
 11
2577.1360411378918798
 21
2141.7101991520780757
 31
0.0
  0
LINE
  5
636F
  8
0
 10
2561.1360411378918798
 20
2165.7101991520780757
 30
0.0
 11
2561.1360411378918798
 21
2160.0601991520770753
 31
0.0
  0
LINE
  5
6371
  8
0
 10
2494.0860411378898789
 20
2147.3601991520790762
 30
0.0
 11
2564.4360411378897879
 21
2147.3601991520790762
 31
0.0
  0
LINE
  5
6372
  8
0
 10
2564.4360411378897879
 20
2146.3601991520790762
 30
0.0
 11
2577.1360411378918798
 21
2146.3601991520790762
 31
0.0
  0
LINE
  5
6373
  8
0
 10
2494.0860411378898789
 20
2160.0601991520770753
 30
0.0
 11
2564.4360411378897879
 21
2160.0601991520770753
 31
0.0
  0
LINE
  5
6374
  8
0
 10
2564.4360411378897879
 20
2161.0601991520770753
 30
0.0
 11
2577.1360411378918798
 21
2161.0601991520770753
 31
0.0
  0
LINE
  5
6375
  8
0
 10
2577.1360411378918798
 20
2161.0601991520770753
 30
0.0
 11
2577.1360411378918798
 21
2146.3601991520790762
 31
0.0
  0
LINE
  5
6376
  8
0
 10
2564.4360411378897879
 20
2161.0601991520770753
 30
0.0
 11
2564.4360411378897879
 21
2146.3601991520790762
 31
0.0
  0
LINE
  5
6377
  8
0
 10
2514.0360411378928802
 20
2345.2001991520801312
 30
0.0
 11
2514.0360411378928802
 21
2163.7101991520771662
 31
0.0
  0
LINE
  5
6DA9
  8
0
 62
     7
 10
2541.0860411378889694
 20
956.2623321608701872
 30
0.0
 11
2541.0860411378889694
 21
1219.9668517125180642
 31
0.0
  0
CIRCLE
  5
7168
  8
0
 10
3590.2368473805090616
 20
998.2623321608722335
 30
0.0
 40
6.0
  0
CIRCLE
  5
716A
  8
0
 10
3590.2368473805090616
 20
968.2623321608723472
 30
0.0
 40
6.0
  0
CIRCLE
  5
716B
  8
0
 10
2924.2368473805099711
 20
998.2623321608722335
 30
0.0
 40
6.0
  0
CIRCLE
  5
716C
  8
0
 10
2924.2368473805099711
 20
968.2623321608723472
 30
0.0
 40
6.0
  0
LINE
  5
71B9
  8
0
 10
2494.0860411378898789
 20
1044.1623321608719834
 30
0.0
 11
2494.0860411378898789
 21
649.1623321608717561
 31
0.0
  0
LINE
  5
71BA
  8
0
 10
2494.0860411378848767
 20
1055.1623321608719834
 30
0.0
 11
2494.0860411378848767
 21
959.7623321608722335
 31
0.0
  0
LINE
  5
71BB
  8
0
 10
2496.5860411378898789
 20
1052.6623321608710739
 30
0.0
 11
2496.5860411378898789
 21
959.7623321608722335
 31
0.0
  0
LINE
  5
71BC
  8
0
 10
2494.0860411378848767
 20
959.7623321608722335
 30
0.0
 11
2496.5860411378898789
 21
959.7623321608722335
 31
0.0
  0
LINE
  5
71BD
  8
0
 10
1405.5860411378889694
 20
649.1623321608717561
 30
0.0
 11
1282.0860411378901063
 21
649.1623321608717561
 31
0.0
  0
LINE
  5
7997
  8
0
 10
2561.1360411378918798
 20
2147.3601991520790762
 30
0.0
 11
2561.1360411378918798
 21
2141.7101991520780757
 31
0.0
  0
LINE
  5
799C
  8
0
 10
2449.5860411378889694
 20
859.477332160872038
 30
0.0
 11
2373.5860411378889694
 21
859.477332160872038
 31
0.0
  0
LINE
  5
799D
  8
0
 10
2382.5860411378907884
 20
646.4773321608719243
 30
0.0
 11
2373.5860411378889694
 21
646.4773321608719243
 31
0.0
  0
LINE
  5
799E
  8
0
 10
2382.5860411378889694
 20
859.477332160872038
 30
0.0
 11
2382.5860411378907884
 21
646.4773321608719243
 31
0.0
  0
LINE
  5
799F
  8
0
 10
2449.5860411378857862
 20
1028.477332160872038
 30
0.0
 11
2449.5860411378889694
 21
859.477332160872038
 31
0.0
  0
CIRCLE
  5
79AB
  8
0
 10
3477.6618473805087888
 20
634.3258443717791124
 30
0.0
 40
9.5
  0
LINE
  5
79AC
  8
0
 10
2971.0868473805080612
 20
859.4773321608722654
 30
0.0
 11
3280.0868473805107897
 21
859.477332160872038
 31
0.0
  0
LINE
  5
79B7
  8
0
 10
2996.0868473805071517
 20
646.4773321608719243
 30
0.0
 11
3267.0868473805107897
 21
646.4773321608719243
 31
0.0
  0
LINE
  5
79BA
  8
0
 10
3267.0868473805107897
 20
859.477332160872038
 30
0.0
 11
3267.0868473805107897
 21
646.4773321608719243
 31
0.0
  0
LINE
  5
79BB
  8
0
 10
2996.0868473805089707
 20
859.4773321608722654
 30
0.0
 11
2996.0868473805048779
 21
646.4773321608719243
 31
0.0
  0
LINE
  5
79C8
  8
0
 62
     7
 10
1317.0614332419679613
 20
2425.6501991520772208
 30
0.0
 11
1133.9793568082020556
 21
2425.6501991520772208
 31
0.0
  0
LINE
  5
79C9
  8
0
 62
     7
 10
1153.9793568081979629
 20
2395.6501991520781303
 30
0.0
 11
1153.9793568081990998
 21
2324.9262981529927856
 31
0.0
  0
SOLID
  5
79CA
  8
0
 62
     7
 10
1158.9793568082020556
 20
2395.6501991520781303
 30
0.0
 11
1148.9793568081959165
 21
2395.6501991520781303
 31
0.0
 12
1153.9793568081979629
 22
2425.6501991520772208
 32
0.0
 13
1153.9793568081979629
 23
2425.6501991520772208
 33
0.0
  0
TEXT
  5
79CB
  8
0
 62
     7
 10
1166.4793568081990998
 20
2252.0104554320150783
 30
0.0
 40
25.0
  1
300
 50
90.0
  0
LINE
  5
79CC
  8
0
 62
     7
 10
1248.4730624676310526
 20
2125.6501991520781303
 30
0.0
 11
1133.9793568082020556
 21
2125.6501991520781303
 31
0.0
  0
LINE
  5
79CD
  8
0
 62
     7
 10
1153.9793568081979629
 20
2155.6501991520781303
 30
0.0
 11
1153.9793568081979629
 21
2245.7596314863249063
 31
0.0
  0
SOLID
  5
79CE
  8
0
 62
     7
 10
1158.9793568082020556
 20
2155.6501991520781303
 30
0.0
 11
1148.9793568081959165
 21
2155.6501991520781303
 31
0.0
 12
1153.9793568081979629
 22
2125.6501991520781303
 32
0.0
 13
1153.9793568081979629
 23
2125.6501991520781303
 33
0.0
  0
LINE
  5
79D1
  8
0
 62
     7
 10
1248.4730624676310526
 20
2125.6501991520781303
 30
0.0
 11
1133.9793568082020556
 21
2125.6501991520781303
 31
0.0
  0
LINE
  5
79D2
  8
0
 62
     7
 10
1153.9793568081979629
 20
2095.6501991520781303
 30
0.0
 11
1153.9793568081990998
 21
1918.6449071649360576
 31
0.0
  0
SOLID
  5
79D3
  8
0
 62
     7
 10
1158.9793568082020556
 20
2095.6501991520781303
 30
0.0
 11
1148.9793568081959165
 21
2095.6501991520781303
 31
0.0
 12
1153.9793568081979629
 22
2125.6501991520781303
 32
0.0
 13
1153.9793568081979629
 23
2125.6501991520781303
 33
0.0
  0
TEXT
  5
79D4
  8
0
 62
     7
 10
1166.4793568081990998
 20
1845.729064443956986
 30
0.0
 40
25.0
  1
486
 50
90.0
  0
LINE
  5
79D5
  8
0
 62
     7
 10
1392.2708990555099717
 20
1641.6501991520779029
 30
0.0
 11
1133.9793568082020556
 21
1641.6501991520779029
 31
0.0
  0
LINE
  5
79D6
  8
0
 62
     7
 10
1153.9793568081979629
 20
1671.6501991520779029
 30
0.0
 11
1153.9793568081979629
 21
1839.4782404982679509
 31
0.0
  0
SOLID
  5
79D7
  8
0
 62
     7
 10
1158.9793568082020556
 20
1671.6501991520779029
 30
0.0
 11
1148.9793568081959165
 21
1671.6501991520779029
 31
0.0
 12
1153.9793568081979629
 22
1641.6501991520779029
 32
0.0
 13
1153.9793568081979629
 23
1641.6501991520779029
 33
0.0
  0
TEXT
  5
79DB
  8
0
 62
     7
 10
1203.5371916301799047
 20
2202.6310861191600452
 30
0.0
 40
25.0
  1
Coil box
 50
90.0
  0
TEXT
  5
79DC
  8
0
 62
     7
 10
1203.5371916301799047
 20
1807.5961129755239654
 30
0.0
 40
25.0
  1
Fan box
 50
90.0
  0
CIRCLE
  5
7ACB
  8
0
 10
3378.1468473805120993
 20
746.1394916979569416
 30
0.0
 40
5.0
  0
CIRCLE
  5
7F24
  8
0
 10
3378.1468473805120993
 20
688.392332160872229
 30
0.0
 40
8.0
  0
LINE
  5
8270
  8
0
 10
1279.5860411378910158
 20
959.7623321608722335
 30
0.0
 11
1282.0860411378901063
 21
959.7623321608722335
 31
0.0
  0
LINE
  5
8660
  8
0
  6
PHANTOM
 62
     7
 10
762.1360411378830122
 20
2384.6501991520808588
 30
0.0
 11
762.1360411378830122
 21
1641.6501991520779029
 31
0.0
  0
LINE
  5
8661
  8
0
  6
PHANTOM
 62
     7
 10
762.1360411378830122
 20
1641.6501991520779029
 30
0.0
 11
1113.9793568082020556
 21
1641.6501991520779029
 31
0.0
  0
TEXT
  5
8662
  8
0
 62
     7
 10
741.3075009740487076
 20
1801.8463050339560141
 30
0.0
 40
25.0
  1
500 mm CLEARENCE
 50
90.0
  7
TITLE3
  0
LINE
  5
8663
  8
0
  6
PHANTOM
 62
     7
 10
1133.9793568081979629
 20
2384.6501991520799493
 30
0.0
 11
762.1360411378830122
 21
2384.6501991520808588
 31
0.0
  0
ENDSEC
  0
EOF
