  0
SECTION
  2
HEADER
  9
$ACADVER
  1
AC1009
  9
$INSBASE
 10
0.0
 20
0.0
 30
0.0
  9
$EXTMIN
 10
809.50654076125284
 20
-0.0811705646119663
 30
-0.0015258207003583
  9
$EXTMAX
 10
3890.118722436313
 20
2343.897710903429
 30
0.0000000349246037
  9
$LIMMIN
 10
0.0
 20
0.0
  9
$LIMMAX
 10
3890.0
 20
2660.0
  9
$ORTHOMODE
 70
     1
  9
$REGENMODE
 70
     1
  9
$FILLMODE
 70
     1
  9
$QTEXTMODE
 70
     0
  9
$MIRRTEXT
 70
     0
  9
$DRAGMODE
 70
     2
  9
$LTSCALE
 40
100.0
  9
$OSMODE
 70
    37
  9
$ATTMODE
 70
     1
  9
$TEXTSIZE
 40
25.0
  9
$TRACEWID
 40
0.05
  9
$TEXTSTYLE
  7
TITLE3
  9
$CLAYER
  8
OUTLINE
  9
$CELTYPE
  6
BYLAYER
  9
$CECOLOR
 62
   256
  9
$DIMSCALE
 40
1.0
  9
$DIMASZ
 40
0.12
  9
$DIMEXO
 40
0.05
  9
$DIMDLI
 40
0.5
  9
$DIMRND
 40
0.0
  9
$DIMDLE
 40
0.0
  9
$DIMEXE
 40
0.1
  9
$DIMTP
 40
0.1
  9
$DIMTM
 40
0.1
  9
$DIMTXT
 40
0.12
  9
$DIMCEN
 40
0.0
  9
$DIMTSZ
 40
0.0
  9
$DIMTOL
 70
     0
  9
$DIMLIM
 70
     0
  9
$DIMTIH
 70
     1
  9
$DIMTOH
 70
     1
  9
$DIMSE1
 70
     0
  9
$DIMSE2
 70
     0
  9
$DIMTAD
 70
     0
  9
$DIMZIN
 70
     7
  9
$DIMBLK
  1

  9
$DIMASO
 70
     0
  9
$DIMSHO
 70
     0
  9
$DIMPOST
  1

  9
$DIMAPOST
  1
mm
  9
$DIMALT
 70
     0
  9
$DIMALTD
 70
     2
  9
$DIMALTF
 40
25.399999999999999
  9
$DIMLFAC
 40
1.0
  9
$DIMTOFL
 70
     0
  9
$DIMTVP
 40
0.0
  9
$DIMTIX
 70
     0
  9
$DIMSOXD
 70
     0
  9
$DIMSAH
 70
     0
  9
$DIMBLK1
  1

  9
$DIMBLK2
  1

  9
$DIMSTYLE
  2
AM_ANSI
  9
$DIMCLRD
 70
   256
  9
$DIMCLRE
 70
   256
  9
$DIMCLRT
 70
     2
  9
$DIMTFAC
 40
0.71
  9
$DIMGAP
 40
0.06
  9
$LUNITS
 70
     2
  9
$LUPREC
 70
     2
  9
$SKETCHINC
 40
0.1
  9
$FILLETRAD
 40
0.0
  9
$AUNITS
 70
     0
  9
$AUPREC
 70
     2
  9
$MENU
  1
\acad12\support\cnc
  9
$ELEVATION
 40
0.0
  9
$PELEVATION
 40
0.0
  9
$THICKNESS
 40
0.0
  9
$LIMCHECK
 70
     0
  9
$BLIPMODE
 70
     0
  9
$CHAMFERA
 40
0.0
  9
$CHAMFERB
 40
0.0
  9
$SKPOLY
 70
     0
  9
$TDCREATE
 40
2450764.4272488421
  9
$TDUPDATE
 40
2456213.4343151851
  9
$TDINDWG
 40
0.9116077778
  9
$TDUSRTIMER
 40
0.9116046875
  9
$USRTIMER
 70
     1
  9
$ANGBASE
 50
0.0
  9
$ANGDIR
 70
     0
  9
$PDMODE
 70
     2
  9
$PDSIZE
 40
10.0
  9
$PLINEWID
 40
0.0
  9
$COORDS
 70
     1
  9
$SPLFRAME
 70
     0
  9
$SPLINETYPE
 70
     6
  9
$SPLINESEGS
 70
     8
  9
$ATTDIA
 70
     1
  9
$ATTREQ
 70
     1
  9
$HANDLING
 70
     1
  9
$HANDSEED
  5
5F91
  9
$SURFTAB1
 70
     6
  9
$SURFTAB2
 70
     6
  9
$SURFTYPE
 70
     6
  9
$SURFU
 70
     6
  9
$SURFV
 70
     6
  9
$UCSNAME
  2

  9
$UCSORG
 10
0.0
 20
0.0
 30
0.0
  9
$UCSXDIR
 10
1.0
 20
0.0
 30
0.0
  9
$UCSYDIR
 10
0.0
 20
1.0
 30
0.0
  9
$PUCSNAME
  2

  9
$PUCSORG
 10
0.0
 20
0.0
 30
0.0
  9
$PUCSXDIR
 10
1.0
 20
0.0
 30
0.0
  9
$PUCSYDIR
 10
0.0
 20
1.0
 30
0.0
  9
$USERI1
 70
     0
  9
$USERI2
 70
     0
  9
$USERI3
 70
     0
  9
$USERI4
 70
     0
  9
$USERI5
 70
     0
  9
$USERR1
 40
0.0
  9
$USERR2
 40
0.0
  9
$USERR3
 40
0.0
  9
$USERR4
 40
0.0
  9
$USERR5
 40
0.0
  9
$WORLDVIEW
 70
     1
  9
$SHADEDGE
 70
     3
  9
$SHADEDIF
 70
    70
  9
$TILEMODE
 70
     1
  9
$MAXACTVP
 70
    16
  9
$PLIMCHECK
 70
     0
  9
$PEXTMIN
 10
1.0000000000000000E+020
 20
1.0000000000000000E+020
 30
1.0000000000000000E+020
  9
$PEXTMAX
 10
-1.0000000000000000E+020
 20
-1.0000000000000000E+020
 30
-1.0000000000000000E+020
  9
$PLIMMIN
 10
0.0
 20
0.0
  9
$PLIMMAX
 10
12.0
 20
9.0
  9
$UNITMODE
 70
     0
  9
$VISRETAIN
 70
     0
  9
$PLINEGEN
 70
     0
  9
$PSLTSCALE
 70
     0
  0
ENDSEC
  0
SECTION
  2
TABLES
  0
TABLE
  2
VPORT
 70
     1
  0
VPORT
  2
*ACTIVE
 70
     0
 10
0.0
 20
0.0
 11
1.0
 21
1.0
 12
2349.8126315987829
 22
1171.9082701694081
 13
0.0
 23
0.0
 14
25.0
 24
25.0
 15
100.0
 25
100.0
 16
0.0
 26
0.0
 36
1.0
 17
0.0
 27
0.0
 37
0.0
 40
2358.7518576117459
 41
1.544689800210304
 42
50.0
 43
0.0
 44
0.0
 50
0.0
 51
0.0
 71
     0
 72
   100
 73
     1
 74
     0
 75
     0
 76
     0
 77
     0
 78
     0
  0
ENDTAB
  0
TABLE
  2
LTYPE
 70
    18
  0
LTYPE
  2
CONTINUOUS
 70
     0
  3
Solid line
 72
    65
 73
     0
 40
0.0
  0
LTYPE
  2
PHANTOM2
 70
     0
  3
Phantom (.5x) ___ _ _ ___ _ _ ___ _ _ ___ _ _
 72
    65
 73
     6
 40
1.25
 49
0.625
 49
-0.125
 49
0.125
 49
-0.125
 49
0.125
 49
-0.125
  0
LTYPE
  2
HIDDEN
 70
     0
  3
__ __ __ __ __ __ __ __ __ __ __ __ __ __ __ __
 72
    65
 73
     2
 40
0.375
 49
0.25
 49
-0.125
  0
LTYPE
  2
PHANTOM
 70
     0
  3
______  __  __  ______  __  __  ______  __  __ 
 72
    65
 73
     6
 40
2.5
 49
1.25
 49
-0.25
 49
0.25
 49
-0.25
 49
0.25
 49
-0.25
  0
LTYPE
  2
CENTER
 70
     0
  3
Center ____ _ ____ _ ____ _ ____ _ ____ _ ____
 72
    65
 73
     4
 40
2.0
 49
1.25
 49
-0.25
 49
0.25
 49
-0.25
  0
LTYPE
  2
AM_ISO02W050
 70
     0
  3
__ __ __ __ __ __ __ __ __ __ __ __ __ __ __
 72
    65
 73
     2
 40
7.5
 49
6.0
 49
-1.5
  0
LTYPE
  2
AM_ISO08W050
 70
     0
  3
____ . ____ . ____ . ____ . ____ . ____ . ____
 72
    65
 73
     4
 40
18.0
 49
12.0
 49
-1.5
 49
3.0
 49
-1.5
  0
LTYPE
  2
AM_ISO09W050
 70
     0
  3
_____ . . _____ . . _____ . . ____ .. ____
 72
    65
 73
     6
 40
22.5
 49
12.0
 49
-1.5
 49
3.0
 49
-1.5
 49
3.0
 49
-1.5
  0
LTYPE
  2
AMCONSTR
 70
     0
  3
_______________________
 72
    65
 73
     2
 40
9999.0
 49
9999.0
 49
0.0
  0
LTYPE
  2
AM_ISO08W050X2
 70
     0
  3
__ . __ . __ . __ . __ . __
 72
    65
 73
     4
 40
9.0
 49
6.0
 49
-0.75
 49
1.5
 49
-0.75
  0
LTYPE
  2
AM_ISO02W050X2
 70
     0
  3
 _ _ _ _ _ _ _ _ _ _ _ _
 72
    65
 73
     2
 40
3.75
 49
3.0
 49
-0.75
  0
LTYPE
  2
AMZIGZAG
 70
     0
  3
/\/-/\/-/\/-/\/-/\/-/\/
 72
    65
 73
     2
 40
11.0001
 49
0.0001
 49
-11.0
  0
LTYPE
  2
CENTER2
 70
     0
  3
Center (.5x) ___ _ ___ _ ___ _ ___ _ ___ _ ___
 72
    65
 73
     4
 40
1.125
 49
0.75
 49
-0.125
 49
0.125
 49
-0.125
  0
LTYPE
  2
HIDDEN2
 70
     0
  3
Hidden (.5x) _ _ _ _ _ _ _ _ _ _ _ _ _ _ _ _ _
 72
    65
 73
     2
 40
0.1875
 49
0.125
 49
-0.0625
  0
LTYPE
  2
AMZIGZAG2
 70
     0
  3
/\/-/\/-/\/-/\/-/\/-/\/
 72
    65
 73
     2
 40
0.4401
 49
0.0001
 49
-0.4400000000000002
  0
LTYPE
  2
ACANSTGB
 70
     0
  3
__ . . __ . .
 72
    65
 73
     6
 40
0.35433070866
 49
0.15748031496
 49
-0.03937007874
 49
0.03937007874
 49
-0.03937007874
 49
0.03937007874
 49
-0.03937007874
  0
LTYPE
  2
ACANSTGL
 70
     0
  3
_ _ _ _ _
 72
    65
 73
     2
 40
0.11811023622
 49
0.07874015748
 49
-0.03937007874
  0
ENDTAB
  0
TABLE
  2
LAYER
 70
     8
  0
LAYER
  2
0
 70
     0
 62
     7
  6
CONTINUOUS
  0
LAYER
  2
OUTLINE
 70
     0
 62
     7
  6
CONTINUOUS
  0
LAYER
  2
DIM
 70
     0
 62
    52
  6
CONTINUOUS
  0
LAYER
  2
OVERLAY-A3
 70
     0
 62
     7
  6
CONTINUOUS
  0
LAYER
  2
TEXT
 70
     0
 62
     7
  6
CONTINUOUS
  0
LAYER
  2
BL
 70
     0
 62
     3
  6
PHANTOM
  0
LAYER
  2
VISIBLE__ANSI_
 70
     0
 62
     7
  6
HIDDEN
  0
LAYER
  2
2
 70
     0
 62
     2
  6
CONTINUOUS
  0
ENDTAB
  0
TABLE
  2
STYLE
 70
     8
  0
STYLE
  2
STANDARD
 70
     0
 40
0.0
 41
1.0
 50
0.0
 71
     0
 42
0.2
  3
txt
  4

  0
STYLE
  2
ANNOTATIVE
 70
     0
 40
0.0
 41
1.0
 50
0.0
 71
     0
 42
0.2
  3
txt
  4

  0
STYLE
  2
TITLE3
 70
     0
 40
25.0
 41
1.0
 50
0.0
 71
     0
 42
25.0
  3
SIMPLEX.shx
  4

  0
STYLE
  2
SIMPLEX
 70
     0
 40
40.0
 41
1.0
 50
0.0
 71
     0
 42
25.0
  3
SIMPLEX
  4

  0
STYLE
  2
TITLE5
 70
     0
 40
25.0
 41
1.0
 50
0.0
 71
     0
 42
25.0
  3
SIMPLEX
  4

  0
STYLE
  2

 70
     1
 40
0.0
 41
1.0
 50
0.0
 71
     0
 42
25.0
  3
genltshp.shx
  4

  0
STYLE
  2
ACANSTS
 70
     0
 40
1.0
 41
1.0
 50
0.0
 71
     0
 42
25.0
  3
romans.shx
  4

  0
STYLE
  2
ACANSGDT
 70
     0
 40
0.0
 41
1.0
 50
0.0
 71
     0
 42
25.0
  3
amgdt.shx
  4

  0
ENDTAB
  0
TABLE
  2
VIEW
 70
     0
  0
ENDTAB
  0
TABLE
  2
UCS
 70
     0
  0
ENDTAB
  0
TABLE
  2
APPID
 70
    25
  0
APPID
  2
ACAD
 70
     0
  0
APPID
  2
ACADANNOTATIVE
 70
     0
  0
APPID
  2
ACAD_MLEADERVER
 70
     0
  0
APPID
  2
ACAD_EXEMPT_FROM_CAD_STANDARDS
 70
     0
  0
APPID
  2
ACAECLAYERSTANDARD
 70
     0
  0
APPID
  2
ACAD_DSTYLE_DIMTEXT_FILL
 70
     0
  0
APPID
  2
ACAD_DSTYLE_DIMEXT_LENGTH
 70
     0
  0
APPID
  2
ACAD_DSTYLE_DIMEXT_ENABLED
 70
     0
  0
APPID
  2
ACAD_DSTYLE_DIM_LINETYPE
 70
     0
  0
APPID
  2
ACAD_DSTYLE_DIM_EXT1_LINETYPE
 70
     0
  0
APPID
  2
ACAD_DSTYLE_DIM_EXT2_LINETYPE
 70
     0
  0
APPID
  2
ACAD_DSTYLE_DIMJOGGED_JOGA
 70
     0
  0
APPID
  2
ACAD_DSTYLE_DIMARC_LENGTH_
 70
     0
  0
APPID
  2
ACAD_PSEXT
 70
     0
  0
APPID
  2
CONTENTBLOCKICON
 70
     0
  0
APPID
  2
MCAD_NO_VIS
 70
     0
  0
APPID
  2
ACAD_TEMP_GRAPHIC
 70
     0
  0
APPID
  2
AD_DRAW
 70
     0
  0
APPID
  2
ACATTRIBSERVICES
 70
     0
  0
APPID
  2
DESIGNERASSEMBLIES
 70
     0
  0
APPID
  2
ACADM_DIM_EDIT
 70
     0
  0
APPID
  2
AMDT_DM_ADJ
 70
     0
  0
APPID
  2
ACAD_DSTYLE_DIMBREAK
 70
     0
  0
APPID
  2
ACAD_DSTYLE_DIMJAG
 70
     0
  0
APPID
  2
ACAD_NAV_VCDISPLAY
 70
     0
  0
ENDTAB
  0
TABLE
  2
DIMSTYLE
 70
     9
  0
DIMSTYLE
  2
STANDARD
 70
     0
  3

  4

  5

  6

  7

 40
1.0
 41
0.18
 42
0.0625
 43
0.38
 44
0.18
 45
0.0
 46
0.0
 47
0.0
 48
0.0
140
0.18
141
0.09
142
0.0
143
25.399999999999999
144
1.0
145
0.0
146
1.0
147
0.09
 71
     0
 72
     0
 73
     1
 74
     1
 75
     0
 76
     0
 77
     0
 78
     0
170
     0
171
     2
172
     0
173
     0
174
     0
175
     0
176
     0
177
     0
178
     0
  0
DIMSTYLE
  2
ANNOTATIVE
 70
     0
  3

  4

  5

  6

  7

 40
1.0
 41
0.18
 42
0.0625
 43
0.38
 44
0.18
 45
0.0
 46
0.0
 47
0.0
 48
0.0
140
0.18
141
0.09
142
0.0
143
25.399999999999999
144
1.0
145
0.0
146
1.0
147
0.09
 71
     0
 72
     0
 73
     1
 74
     1
 75
     0
 76
     0
 77
     0
 78
     0
170
     0
171
     2
172
     0
173
     0
174
     0
175
     0
176
     0
177
     0
178
     0
  0
DIMSTYLE
  2
COPY_OF_STANDARD
 70
     0
  3

  4

  5

  6

  7

 40
1.0
 41
30.0
 42
20.0
 43
0.38
 44
20.0
 45
0.0
 46
0.0
 47
0.0
 48
0.0
140
25.0
141
0.09
142
0.0
143
25.399999999999999
144
1.0
145
0.0
146
1.0
147
20.0
 71
     0
 72
     0
 73
     0
 74
     0
 75
     0
 76
     0
 77
     0
 78
     0
170
     0
171
     2
172
     0
173
     0
174
     0
175
     0
176
     7
177
     7
178
     7
  0
DIMSTYLE
  2
AM_ANSI
 70
     0
  3

  4
mm
  5

  6

  7

 40
1.0
 41
0.12
 42
0.05
 43
0.5
 44
0.1
 45
0.0
 46
0.0
 47
0.1
 48
0.1
140
0.12
141
0.0
142
0.0
143
25.399999999999999
144
1.0
145
0.0
146
0.71
147
0.06
 71
     0
 72
     0
 73
     1
 74
     1
 75
     0
 76
     0
 77
     0
 78
     7
170
     0
171
     2
172
     0
173
     0
174
     0
175
     0
176
   256
177
   256
178
     2
  0
DIMSTYLE
  2
AM_ANSI$3
 70
     0
  3

  4
mm
  5

  6

  7

 40
1.0
 41
0.12
 42
0.05
 43
0.5
 44
0.1
 45
0.0
 46
0.0
 47
0.1
 48
0.1
140
0.12
141
0.0
142
0.0
143
25.399999999999999
144
1.0
145
0.0
146
0.71
147
0.06
 71
     0
 72
     0
 73
     1
 74
     1
 75
     0
 76
     0
 77
     0
 78
     7
170
     0
171
     2
172
     0
173
     0
174
     0
175
     0
176
   256
177
   256
178
     2
  0
DIMSTYLE
  2
AM_ANSI$4
 70
     0
  3

  4
mm
  5

  6

  7

 40
1.0
 41
0.12
 42
0.05
 43
0.5
 44
0.1
 45
0.0
 46
0.0
 47
0.1
 48
0.1
140
0.12
141
0.0
142
0.0
143
25.399999999999999
144
1.0
145
0.0
146
0.71
147
0.06
 71
     0
 72
     0
 73
     1
 74
     1
 75
     0
 76
     0
 77
     0
 78
     7
170
     0
171
     2
172
     0
173
     0
174
     0
175
     0
176
   256
177
   256
178
     2
  0
DIMSTYLE
  2
AM_ANSI$7
 70
     0
  3

  4
mm
  5

  6

  7

 40
1.0
 41
0.12
 42
0.05
 43
0.5
 44
0.1
 45
0.0
 46
0.0
 47
0.1
 48
0.1
140
0.12
141
0.0
142
0.0
143
25.399999999999999
144
1.0
145
0.0
146
0.71
147
0.06
 71
     0
 72
     0
 73
     1
 74
     1
 75
     0
 76
     0
 77
     0
 78
     7
170
     0
171
     2
172
     0
173
     0
174
     0
175
     0
176
   256
177
   256
178
     2
  0
DIMSTYLE
  2
AM_ANSI$SF
 70
     0
  3

  4
mm
  5

  6

  7

 40
1.0
 41
0.12
 42
0.05
 43
0.5
 44
0.1
 45
0.0
 46
0.0
 47
0.1
 48
0.1
140
0.12
141
0.0
142
0.0
143
25.399999999999999
144
1.0
145
0.0
146
0.71
147
0.06
 71
     0
 72
     0
 73
     1
 74
     1
 75
     1
 76
     1
 77
     0
 78
     7
170
     0
171
     2
172
     0
173
     0
174
     0
175
     0
176
   256
177
   256
178
     2
  0
DIMSTYLE
  2
AM_ANSI$SH
 70
     0
  3

  4
mm
  5

  6

  7

 40
1.0
 41
0.12
 42
0.05
 43
0.5
 44
0.1
 45
0.0
 46
0.0
 47
0.1
 48
0.1
140
0.12
141
0.0
142
0.0
143
25.399999999999999
144
1.0
145
0.0
146
0.71
147
0.06
 71
     0
 72
     0
 73
     1
 74
     1
 75
     1
 76
     1
 77
     0
 78
     7
170
     0
171
     2
172
     0
173
     1
174
     0
175
     0
176
   256
177
   256
178
     2
  0
ENDTAB
  0
ENDSEC
  0
SECTION
  2
BLOCKS
  0
BLOCK
  8
0
  2
$MODEL_SPACE
 70
     0
 10
0.0
 20
0.0
 30
0.0
  3
$MODEL_SPACE
  1

  0
ENDBLK
  5
5E43
  8
0
  0
BLOCK
 67
     1
  8
0
  2
$PAPER_SPACE
 70
     0
 10
0.0
 20
0.0
 30
0.0
  3
$PAPER_SPACE
  1

  0
ENDBLK
  5
5E3F
 67
     1
  8
0
  0
BLOCK
  8
0
  2
NEW_BLOCK
 70
     0
 10
0.0
 20
0.0
 30
0.0
  3
NEW_BLOCK
  1

  0
TEXT
  5
3EB3
  8
TEXT
 10
27.285946821803002
 20
25.27142175952417
 30
0.0
 40
40.0
  1
available on request
  7
TITLE3
  0
TEXT
  5
3EB4
  8
TEXT
 10
27.285946821803002
 20
93.842850330952714
 30
0.0
 40
40.0
  1
Certified dimensions
  7
TITLE3
  0
TEXT
  5
3EB5
  8
TEXT
 10
27.285946821803002
 20
162.4142789023812
 30
0.0
 40
40.0
  1
without notice or obligation.
  7
TITLE3
  0
TEXT
  5
3EB6
  8
TEXT
 10
27.285946821803002
 20
230.9857074738097
 30
0.0
 40
40.0
  1
specifications at any time
  7
TITLE3
  0
TEXT
  5
3EB7
  8
TEXT
 10
27.285946821803002
 20
299.55713604523839
 30
0.0
 40
40.0
  1
the right to change 
  7
TITLE3
  0
TEXT
  5
3EB8
  8
TEXT
 10
27.285946821803002
 20
436.69999318809488
 30
0.0
 40
40.0
  1
NOTE
  7
TITLE3
  0
TEXT
  5
3EB9
  8
TEXT
 10
27.285946821803002
 20
368.12856461666678
 30
0.0
 40
40.0
  1
The manufacturer reserves
  7
TITLE3
  0
ENDBLK
  5
3EBA
  8
0
  0
BLOCK
  8
0
  2
A$C397249ED
 70
     0
 10
0.0
 20
0.0
 30
0.0
  3
A$C397249ED
  1

  0
LINE
  5
55AC
  8
DIM
 10
36.856803494667481
 20
31.533347416726428
 30
0.0
 11
56.700982287470651
 21
31.533347416726428
 31
0.0
  0
LINE
  5
55AD
  8
DIM
 10
36.856803494667481
 20
47.869898599908062
 30
0.0
 11
36.856803494667481
 21
31.533347416726428
 31
0.0
  0
LINE
  5
55AE
  8
DIM
 10
0.0000117692425192
 20
23.934951517573491
 30
0.0
 11
36.856803494667481
 21
47.869898599908062
 31
0.0
  0
LINE
  5
55AF
  8
DIM
 10
56.700982287470651
 20
16.33655561841897
 30
0.0
 11
56.700982287470651
 21
31.533347416726428
 31
0.0
  0
LINE
  5
55B0
  8
DIM
 10
36.856803494667481
 20
16.33655561841897
 30
0.0
 11
56.700982287470651
 21
16.33655561841897
 31
0.0
  0
LINE
  5
55B1
  8
DIM
 10
36.856803494667481
 20
0.0000044352391342
 30
0.0
 11
36.856803494667481
 21
16.33655561841897
 31
0.0
  0
LINE
  5
55B2
  8
DIM
 10
0.0000117692425192
 20
23.934951517573491
 30
0.0
 11
36.856803494667481
 21
0.0000044352391342
 31
0.0
  0
ENDBLK
  5
55B6
  8
0
  0
BLOCK
  8
0
  2
*U4
 70
     1
 10
0.0
 20
0.0
 30
0.0
  3
*U4
  1

  0
TEXT
  5
5905
  8
DIM
 62
    50
 10
475.2857142857145
 20
-833.05606636291805
 30
0.0
 40
30.0
  1
1298 O/A
  7
TITLE3
  0
ENDBLK
  5
5907
  8
0
  0
BLOCK
  8
0
  2
*U5
 70
     1
 10
0.0
 20
0.0
 30
0.0
  3
*U5
  1

  0
TEXT
  5
5909
  8
DIM
 62
    50
 10
-270.72516517971508
 20
-352.85714285714317
 30
0.0
 40
30.0
  1
586
 50
90.0
  7
TITLE3
  0
ENDBLK
  5
590B
  8
0
  0
BLOCK
  8
0
  2
*U6
 70
     1
 10
0.0
 20
0.0
 30
0.0
  3
*U6
  1

  0
TEXT
  5
590D
  8
DIM
 62
    50
 10
384.59277508182367
 20
-771.74024375102215
 30
0.0
 40
30.0
  1
860
  7
TITLE3
  0
ENDBLK
  5
590F
  8
0
  0
BLOCK
  8
0
  2
*U7
 70
     1
 10
0.0
 20
0.0
 30
0.0
  3
*U7
  1

  0
TEXT
  5
5911
  8
DIM
 62
    50
 10
397.4285714285715
 20
111.0944786292339
 30
0.0
 40
30.0
  1
872
  7
TITLE3
  0
ENDBLK
  5
5913
  8
0
  0
BLOCK
  8
0
  2
*U8
 70
     1
 10
0.0
 20
0.0
 30
0.0
  3
*U8
  1

  0
TEXT
  5
5915
  8
DIM
 62
    50
 10
-29.385714285714648
 20
176.0865266181325
 30
0.0
 40
30.0
  1
37
  7
TITLE3
  0
ENDBLK
  5
5917
  8
0
  0
BLOCK
  8
0
  2
*U9
 70
     1
 10
0.0
 20
0.0
 30
0.0
  3
*U9
  1

  0
TEXT
  5
5919
  8
DIM
 62
    50
 10
1001.928571428572
 20
111.285999719616
 30
0.0
 40
30.0
  1
337
  7
TITLE3
  0
ENDBLK
  5
591B
  8
0
  0
BLOCK
  8
0
  2
*U10
 70
     1
 10
0.0
 20
0.0
 30
0.0
  3
*U10
  1

  0
TEXT
  5
591D
  8
DIM
 62
    50
 10
-174.23242148067021
 20
-766.56839955658552
 30
0.0
 40
30.0
  1
30
  7
TITLE3
  0
ENDBLK
  5
591F
  8
0
  0
BLOCK
  8
0
  2
*U11
 70
     1
 10
0.0
 20
0.0
 30
0.0
  3
*U11
  1

  0
TEXT
  5
5921
  8
DIM
 62
    50
 10
-110.0472301497243
 20
-490.0
 30
0.0
 40
30.0
  1
485 MTG. CTRS
 50
90.0
  7
TITLE3
  0
ENDBLK
  5
5923
  8
0
  0
BLOCK
  8
0
  2
*U12
 70
     1
 10
0.0
 20
0.0
 30
0.0
  3
*U12
  1

  0
TEXT
  5
5925
  8
DIM
 62
    50
 10
-181.5872074954672
 20
-519.28571428571422
 30
0.0
 40
30.0
  1
(SOLID & SPRING)
 50
90.0
  7
TITLE3
  0
ENDBLK
  5
5927
  8
0
  0
BLOCK
  8
0
  2
*U13
 70
     1
 10
0.0
 20
0.0
 30
0.0
  3
*U13
  1

  0
TEXT
  5
5929
  8
DIM
 62
    50
 10
-333.31007903316799
 20
-449.78571428571399
 30
0.0
 40
30.0
  1
700 O/A
 50
90.0
  7
TITLE3
  0
ENDBLK
  5
592B
  8
0
  0
BLOCK
  8
0
  2
*U14
 70
     1
 10
0.0
 20
0.0
 30
0.0
  3
*U14
  1

  0
TEXT
  5
592D
  8
DIM
 62
    50
 10
1710.3145237829431
 20
1322.5701384465269
 30
0.0
 40
30.0
  1
1298 O/A
  7
TITLE3
  0
ENDBLK
  5
592F
  8
0
  0
BLOCK
  8
0
  2
*U15
 70
     1
 10
0.0
 20
0.0
 30
0.0
  3
*U15
  1

  0
TEXT
  5
5931
  8
DIM
 62
    50
 10
2649.4675381235602
 20
1834.959782044265
 30
0.0
 40
30.0
  1
586
 50
90.0
  7
TITLE3
  0
ENDBLK
  5
5933
  8
0
  0
BLOCK
  8
0
  2
*U16
 70
     1
 10
0.0
 20
0.0
 30
0.0
  3
*U16
  1

  0
TEXT
  5
5935
  8
DIM
 62
    50
 10
1619.6215845790521
 20
1398.371785382348
 30
0.0
 40
30.0
  1
860
  7
TITLE3
  0
ENDBLK
  5
5937
  8
0
  0
BLOCK
  8
0
  2
*U17
 70
     1
 10
0.0
 20
0.0
 30
0.0
  3
*U17
  1

  0
TEXT
  5
5939
  8
DIM
 62
    50
 10
1632.4573809258
 20
2244.7025037397211
 30
0.0
 40
30.0
  1
872
  7
TITLE3
  0
ENDBLK
  5
593B
  8
0
  0
BLOCK
  8
0
  2
*U18
 70
     1
 10
0.0
 20
0.0
 30
0.0
  3
*U18
  1

  0
TEXT
  5
593D
  8
DIM
 62
    50
 10
1075.465251217556
 20
2255.4856406360682
 30
0.0
 40
30.0
  1
37
  7
TITLE3
  0
ENDBLK
  5
593F
  8
0
  0
BLOCK
  8
0
  2
*U19
 70
     1
 10
0.0
 20
0.0
 30
0.0
  3
*U19
  1

  0
TEXT
  5
5941
  8
DIM
 62
    50
 10
2236.9573809258009
 20
2244.8940248301028
 30
0.0
 40
30.0
  1
337
  7
TITLE3
  0
ENDBLK
  5
5943
  8
0
  0
BLOCK
  8
0
  2
*U20
 70
     1
 10
0.0
 20
0.0
 30
0.0
  3
*U20
  1

  0
TEXT
  5
5945
  8
DIM
 62
    50
 10
1035.796388016558
 20
1403.543629576785
 30
0.0
 40
30.0
  1
55
  7
TITLE3
  0
ENDBLK
  5
5947
  8
0
  0
BLOCK
  8
0
  2
*U21
 70
     1
 10
0.0
 20
0.0
 30
0.0
  3
*U21
  1

  0
TEXT
  5
5949
  8
DIM
 62
    50
 10
1017.432367094524
 20
1738.031210615695
 30
0.0
 40
30.0
  1
700 O/A
 50
90.0
  7
TITLE3
  0
ENDBLK
  5
594B
  8
0
  0
BLOCK
  8
0
  2
*U22
 70
     1
 10
0.0
 20
0.0
 30
0.0
  3
*U22
  1

  0
TEXT
  5
5950
  8
DIM
 62
    50
 10
-214.7981573737579
 20
-272.07142857142821
 30
0.0
 40
30.0
  1
467
 50
90.0
  7
TITLE3
  0
ENDBLK
  5
5952
  8
0
  0
BLOCK
  8
0
  2
*U23
 70
     1
 10
0.0
 20
0.0
 30
0.0
  3
*U23
  1

  0
TEXT
  5
5954
  8
DIM
 62
    50
 10
17.785714285713841
 20
146.3451067005326
 30
0.0
 40
30.0
  1
107
  7
TITLE3
  0
ENDBLK
  5
5956
  8
0
  0
BLOCK
  8
0
  2
*U24
 70
     1
 10
0.0
 20
0.0
 30
0.0
  3
*U24
  1

  0
TEXT
  5
5958
  8
DIM
 62
    50
 10
211.9262015173467
 20
142.24117504674541
 30
0.0
 40
30.0
  1
75
  7
TITLE3
  0
ENDBLK
  5
595A
  8
0
  0
BLOCK
  8
0
  2
*U25
 70
     1
 10
0.0
 20
0.0
 30
0.0
  3
*U25
  1

  0
TEXT
  5
595C
  8
DIM
 62
    50
 10
-48.908937365109978
 20
71.074637176782389
 30
0.0
 40
30.0
  1
46
 50
90.0
  7
TITLE3
  0
ENDBLK
  5
595E
  8
0
  0
BLOCK
  8
0
  2
*U26
 70
     1
 10
0.0
 20
0.0
 30
0.0
  3
*U26
  1

  0
TEXT
  5
5960
  8
DIM
 62
    50
 10
2900.3156396811
 20
736.89987981818035
 30
0.0
 40
30.0
  1
467
 50
90.0
  7
TITLE3
  0
ENDBLK
  5
5962
  8
0
  0
BLOCK
  8
0
  2
*U27
 70
     1
 10
0.0
 20
0.0
 30
0.0
  3
*U27
  1

  0
TEXT
  5
5964
  8
DIM
 62
    50
 10
3132.8995113405722
 20
1155.31641509014
 30
0.0
 40
30.0
  1
107
  7
TITLE3
  0
ENDBLK
  5
5966
  8
0
  0
BLOCK
  8
0
  2
*U28
 70
     1
 10
0.0
 20
0.0
 30
0.0
  3
*U28
  1

  0
TEXT
  5
5968
  8
DIM
 62
    50
 10
3327.0399985722051
 20
1151.212483436354
 30
0.0
 40
30.0
  1
75
  7
TITLE3
  0
ENDBLK
  5
596A
  8
0
  0
BLOCK
  8
0
  2
*U29
 70
     1
 10
0.0
 20
0.0
 30
0.0
  3
*U29
  1

  0
TEXT
  5
596C
  8
DIM
 62
    50
 10
3435.0530355829842
 20
1080.0459455663911
 30
0.0
 40
30.0
  1
46
 50
90.0
  7
TITLE3
  0
ENDBLK
  5
596E
  8
0
  0
BLOCK
  8
0
  2
*U30
 70
     1
 10
0.0
 20
0.0
 30
0.0
  3
*U30
  1

  0
TEXT
  5
5970
  8
DIM
 62
    50
 10
2969.7763913524209
 20
771.10017082938055
 30
0.0
 40
30.0
  1
224
 50
90.0
  7
TITLE3
  0
ENDBLK
  5
5972
  8
0
  0
BLOCK
  8
0
  2
*U31
 70
     1
 10
0.0
 20
0.0
 30
0.0
  3
*U31
  1

  0
TEXT
  5
5974
  8
DIM
 62
    50
 10
369.71428571428612
 20
64.26708256762231
 30
0.0
 40
30.0
  1
1271 MTG. CTRS (SOLID)
  7
TITLE3
  0
ENDBLK
  5
5976
  8
0
  0
BLOCK
  8
0
  2
*U32
 70
     1
 10
0.0
 20
0.0
 30
0.0
  3
*U32
  1

  0
TEXT
  5
5978
  8
DIM
 62
    50
 10
348.99999999999937
 20
134.75685553218949
 30
0.0
 40
30.0
  1
1336 MTG. CTRS (SPRING)
  7
TITLE3
  0
ENDBLK
  5
597A
  8
0
  0
BLOCK
  8
0
  2
*U33
 70
     1
 10
0.0
 20
0.0
 30
0.0
  3
*U33
  1

  0
TEXT
  5
597C
  8
DIM
 62
    50
 10
-72.143644423853402
 20
-123.33415928427451
 30
0.0
 40
30.0
  1
175
 50
90.0
  7
TITLE3
  0
ENDBLK
  5
597E
  8
0
  0
BLOCK
  8
0
  2
*U34
 70
     1
 10
0.0
 20
0.0
 30
0.0
  3
*U34
  1

  0
TEXT
  5
5980
  8
DIM
 62
    50
 10
-142.74088655990809
 20
-289.85714285714312
 30
0.0
 40
30.0
  1
506
 50
90.0
  7
TITLE3
  0
ENDBLK
  5
5982
  8
0
  0
BLOCK
  8
0
  2
*U35
 70
     1
 10
0.0
 20
0.0
 30
0.0
  3
*U35
  1

  0
TEXT
  5
5984
  8
DIM
 62
    50
 10
1435.9114352502911
 20
-285.06702689638422
 30
0.0
 40
30.0
  1
493
 50
90.0
  7
TITLE3
  0
ENDBLK
  5
5986
  8
0
  0
BLOCK
  8
0
  2
*U36
 70
     1
 10
0.0
 20
0.0
 30
0.0
  3
*U36
  1

  0
TEXT
  5
5988
  8
DIM
 62
    50
 10
1637.4573809258011
 20
1069.2383909572311
 30
0.0
 40
30.0
  1
1271 MTG. CTRS
  7
TITLE3
  0
ENDBLK
  5
598A
  8
0
  0
BLOCK
  8
0
  2
*U37
 70
     1
 10
0.0
 20
0.0
 30
0.0
  3
*U37
  1

  0
TEXT
  5
598C
  8
DIM
 62
    50
 10
1418.171666640086
 20
1139.7281639217979
 30
0.0
 40
30.0
  1
1336 OPTIONAL SPRING MTG. CTRS
  7
TITLE3
  0
ENDBLK
  5
598E
  8
0
  0
BLOCK
  8
0
  2
*U38
 70
     1
 10
0.0
 20
0.0
 30
0.0
  3
*U38
  1

  0
TEXT
  5
5990
  8
DIM
 62
    50
 10
1099.8851650733759
 20
886.63714910533406
 30
0.0
 40
30.0
  1
175
 50
90.0
  7
TITLE3
  0
ENDBLK
  5
5992
  8
0
  0
BLOCK
  8
0
  2
*U39
 70
     1
 10
0.0
 20
0.0
 30
0.0
  3
*U39
  1

  0
TEXT
  5
5994
  8
DIM
 62
    50
 10
1029.2879229373209
 20
720.11416553246579
 30
0.0
 40
30.0
  1
506
 50
90.0
  7
TITLE3
  0
ENDBLK
  5
5996
  8
0
  0
BLOCK
  8
0
  2
*U40
 70
     1
 10
0.0
 20
0.0
 30
0.0
  3
*U40
  1

  0
TEXT
  5
5998
  8
DIM
 62
    50
 10
2607.9402447475209
 20
724.90428149322463
 30
0.0
 40
30.0
  1
493
 50
90.0
  7
TITLE3
  0
ENDBLK
  5
599A
  8
0
  0
BLOCK
  8
0
  2
*U41
 70
     1
 10
0.0
 20
0.0
 30
0.0
  3
*U41
  1

  0
TEXT
  5
599C
  8
DIM
 62
    50
 10
2551.2637761509332
 20
1834.2454963299799
 30
0.0
 40
30.0
  1
485
 50
90.0
  7
TITLE3
  0
ENDBLK
  5
599E
  8
0
  0
BLOCK
  8
0
  2
*U42
 70
     1
 10
0.0
 20
0.0
 30
0.0
  3
*U42
  1

  0
TEXT
  5
59A0
  8
DIM
 62
    50
 10
2962.0784273166942
 20
946.03188715872238
 30
0.0
 40
30.0
  1
95
 50
90.0
  7
TITLE3
  0
ENDBLK
  5
59A2
  8
0
  0
BLOCK
  8
0
  2
*U43
 70
     1
 10
0.0
 20
0.0
 30
0.0
  3
*U43
  1

  0
TEXT
  5
5ABF
  8
DIM
 10
3745.921443202109
 20
655.36185026994065
 30
0.0
 40
25.0
  1
365
 50
90.0
  0
ENDBLK
  5
5AC1
  8
0
  0
BLOCK
  8
0
  2
*U44
 70
     1
 10
0.0
 20
0.0
 30
0.0
  3
*U44
  1

  0
TEXT
  5
5AC3
  8
DIM
 10
3745.921443202109
 20
892.86185026994053
 30
0.0
 40
25.0
  1
85
 50
90.0
  0
ENDBLK
  5
5AC5
  8
0
  0
BLOCK
  8
0
  2
NEW_COVER
 70
     0
 10
0.0
 20
0.0
 30
0.0
  3
NEW_COVER
  1

  0
LINE
  5
5BB6
  8
VISIBLE__ANSI_
 10
309.59709224127909
 20
-46.50000000000022
 30
0.0
 11
309.59709224127909
 21
271.49999999999909
 31
0.0
  0
LINE
  5
5BB7
  8
VISIBLE__ANSI_
 10
-6.0013717474998884
 20
271.49999999999932
 30
0.0
 11
-6.0013717475000012
 21
-46.500000000000107
 31
0.0
  0
CIRCLE
  5
5BB8
  8
2
 10
0.0000000000003411
 20
225.0
 30
0.0
 40
3.5
  0
CIRCLE
  5
5BB9
  8
2
 10
303.59572052977887
 20
224.9999999999996
 30
0.0
 40
3.5
  0
LINE
  5
5BBA
  8
BL
 10
-6.0013717475001132
 20
-46.5
 30
0.0
 11
309.59709224127909
 21
-46.50000000000022
 31
0.0
  0
LINE
  5
5BBB
  8
BL
 10
-6.0013717474997721
 20
271.49999999999949
 30
0.0
 11
309.59709224127909
 21
271.49999999999932
 31
0.0
  0
CIRCLE
  5
5BBC
  8
2
 10
0.0
 20
0.0
 30
0.0
 40
3.5
  0
CIRCLE
  5
5BBD
  8
2
 10
303.59572052977887
 20
-0.0000000000002274
 30
0.0
 40
3.5
  0
ENDBLK
  5
5BBE
  8
0
  0
BLOCK
  8
0
  2
A$C7E17545E
 70
     0
 10
0.0
 20
0.0
 30
0.0
  3
A$C7E17545E
  1

  0
INSERT
  5
5BC8
  8
DIM
  6
CONTINUOUS
  2
NEW_COVER
 10
-335.61572052989089
 20
-380.61896770194971
 30
0.0
  0
ENDBLK
  5
5BCC
  8
0
  0
BLOCK
  8
0
  2
GENAXEH
 70
     0
 10
0.0
 20
0.0
 30
0.0
  3
GENAXEH
  1

  0
LINE
  5
5D94
  8
0
 10
-1.0
 20
0.0
 30
0.0
 11
1.0
 21
0.0
 31
0.0
  0
ENDBLK
  5
5D96
  8
0
  0
ENDSEC
  0
SECTION
  2
ENTITIES
  0
LINE
  5
30F6
  8
OUTLINE
 10
3890.000000000156
 20
0.0
 30
0.0
 11
809.60807757997452
 21
0.0
 31
0.0
  0
LINE
  5
30F7
  8
OUTLINE
 10
809.60807757997452
 20
0.0
 30
0.0
 11
809.60807757997452
 21
2343.7053395651901
 31
0.0
  0
LINE
  5
30F8
  8
OUTLINE
 10
809.60807757997452
 20
2343.7053395651901
 30
0.0
 11
3890.000000000156
 21
2343.7053395651901
 31
0.0
  0
LINE
  5
30F9
  8
OUTLINE
 10
3890.000000000156
 20
2343.7053395651901
 30
0.0
 11
3890.000000000156
 21
0.0
 31
0.0
  0
INSERT
  5
3EC0
  8
TEXT
  2
NEW_BLOCK
 10
3053.7643925218908
 20
1887.8358511519191
 30
0.0
 41
0.8399999999996906
 42
0.8399999999996906
 43
0.8399999999996906
  0
LINE
  5
53CA
  8
OUTLINE
 10
2444.0288094972288
 20
956.29518360327233
 30
0.0
 11
2444.0288094972311
 21
490.29518360327341
 31
0.0
  0
LINE
  5
53CB
  8
OUTLINE
 10
2470.0288094972288
 20
956.29518360327393
 30
0.0
 11
2470.0288094972288
 21
947.29518360327245
 31
0.0
  0
LINE
  5
53CC
  8
OUTLINE
 10
1198.0288094972291
 20
956.29518360327233
 30
0.0
 11
1198.0288094972291
 21
490.29518360327341
 31
0.0
  0
LINE
  5
53CD
  8
OUTLINE
 10
1198.0288094972291
 20
490.29518360327341
 30
0.0
 11
1214.0288094972291
 21
490.29518360327341
 31
0.0
  0
LINE
  5
53CE
  8
OUTLINE
 10
1172.0288094972291
 20
956.29518360327393
 30
0.0
 11
1172.0288094972291
 21
947.29518360327245
 31
0.0
  0
LINE
  5
53CF
  8
OUTLINE
 10
1199.0288094972291
 20
452.29514450963171
 30
0.0
 11
1199.0288094972291
 21
490.29518360327341
 31
0.0
  0
LINE
  5
53D0
  8
OUTLINE
 10
1174.705396103378
 20
453.29518360327279
 30
0.0
 11
1174.705396103378
 21
472.29518360327268
 31
0.0
  0
LINE
  5
53D1
  8
OUTLINE
 10
2444.0288094972311
 20
463.30398695336152
 30
0.0
 11
2444.0288094972311
 21
490.29518360327341
 31
0.0
  0
LINE
  5
53D2
  8
OUTLINE
 10
2469.0288094972288
 20
479.29518360327347
 30
0.0
 11
2469.0288094972288
 21
490.29518360327341
 31
0.0
  0
LINE
  5
53D3
  8
OUTLINE
 10
1173.0288094972291
 20
490.29518360327341
 30
0.0
 11
1173.0288094972291
 21
480.29518360327341
 31
0.0
  0
LINE
  5
53D4
  8
OUTLINE
 10
1199.0288094972291
 20
453.29518360327279
 30
0.0
 11
1174.705396103378
 21
453.29518360327279
 31
0.0
  0
LINE
  5
53D5
  8
OUTLINE
 10
1199.0288094972291
 20
472.29518360327268
 30
0.0
 11
1174.705396103378
 21
472.29518360327268
 31
0.0
  0
LINE
  5
53D6
  8
OUTLINE
 10
2443.0288094972311
 20
2085.140800115073
 30
0.0
 11
2443.0288094972288
 21
1551.1408001150739
 31
0.0
  0
LINE
  5
53D7
  8
OUTLINE
 10
2088.5112874709812
 20
1433.1408001150739
 30
0.0
 11
1227.874738829981
 21
1433.1408001150739
 31
0.0
  0
LINE
  5
53D8
  8
OUTLINE
 10
2443.0288094972311
 20
2085.140800115073
 30
0.0
 11
2470.0288094972311
 21
2085.140800115073
 31
0.0
  0
LINE
  5
53D9
  8
OUTLINE
 10
2470.0288094972311
 20
2085.140800115073
 30
0.0
 11
2470.0288094972311
 21
1551.1408001150739
 31
0.0
  0
POLYLINE
  5
53DA
  8
OUTLINE
  6
HIDDEN
 66
     1
 10
0.0
 20
0.0
 30
0.0
  0
VERTEX
  5
58F5
  8
OUTLINE
  6
HIDDEN
 10
2151.4288094972312
 20
2083.140800115073
 30
0.0
  0
VERTEX
  5
58F6
  8
OUTLINE
  6
HIDDEN
 10
2151.4288094972312
 20
2084.1408001150739
 30
0.0
  0
SEQEND
  5
58F7
  8
OUTLINE
  6
HIDDEN
  0
LINE
  5
53DB
  8
OUTLINE
 10
2443.0288094972311
 20
2085.140800115073
 30
0.0
 11
1198.0288094972291
 21
2085.140800115073
 31
0.0
  0
LINE
  5
53DC
  8
OUTLINE
 10
2107.0288094972288
 20
2134.140800115073
 30
0.0
 11
1235.0288094972291
 21
2134.1408001150749
 31
0.0
  0
LINE
  5
53DD
  8
OUTLINE
 10
1200.0288094972291
 20
2111.140800115073
 30
0.0
 11
2442.0288094972288
 21
2111.1408001150721
 31
0.0
  0
LINE
  5
53DE
  8
OUTLINE
 10
2442.0288094972311
 20
2085.140800115073
 30
0.0
 11
2442.0288094972288
 21
2111.1408001150721
 31
0.0
  0
LINE
  5
53DF
  8
OUTLINE
 10
1200.0288094972279
 20
2085.140800115073
 30
0.0
 11
1200.0288094972291
 21
2111.140800115073
 31
0.0
  0
LINE
  5
53E0
  8
OUTLINE
 10
2441.5456094807701
 20
846.47658709222048
 30
0.0
 11
2441.5456094807701
 21
529.8808665622222
 31
0.0
  0
LINE
  5
53E1
  8
OUTLINE
 10
2126.8255232567271
 20
529.88086656222185
 30
0.0
 11
2441.5456094807701
 21
529.8808665622222
 31
0.0
  0
LINE
  5
53E2
  8
OUTLINE
 10
2441.5456094807701
 20
846.47658709222048
 30
0.0
 11
2126.8255232567271
 21
846.47658709222048
 31
0.0
  0
LINE
  5
53E3
  8
OUTLINE
 10
2126.8255232567271
 20
846.47658709222048
 30
0.0
 11
2126.8255232567271
 21
529.88086656222185
 31
0.0
  0
LINE
  5
53E4
  8
OUTLINE
 10
2140.4209492322279
 20
1433.9408001150739
 30
0.0
 11
2140.4209492322279
 21
1525.1408001150751
 31
0.0
  0
LINE
  5
53E5
  8
OUTLINE
 10
2432.0209492322301
 20
1433.9408001150739
 30
0.0
 11
2432.0209492322278
 21
1525.1408001150751
 31
0.0
  0
LINE
  5
53E6
  8
OUTLINE
 10
2444.0288094972288
 20
1433.1408001150739
 30
0.0
 11
2128.4130889672278
 21
1433.1408001150739
 31
0.0
  0
LINE
  5
53E7
  8
OUTLINE
 10
1198.0288094972291
 20
2085.140800115073
 30
0.0
 11
1198.02880949723
 21
1550.1408001150739
 31
0.0
  0
LINE
  5
53E8
  8
OUTLINE
 10
1198.0288094972291
 20
2085.140800115073
 30
0.0
 11
1172.0288094972291
 21
2085.140800115073
 31
0.0
  0
LINE
  5
53E9
  8
OUTLINE
 10
1172.0288094972291
 20
2085.140800115073
 30
0.0
 11
1172.0288094972291
 21
1551.1408001150739
 31
0.0
  0
LINE
  5
53EA
  8
OUTLINE
 10
1172.0288094972291
 20
1551.1408001150739
 30
0.0
 11
1198.02880949723
 21
1551.1408001150739
 31
0.0
  0
LINE
  5
53EB
  8
OUTLINE
 10
1227.874738829981
 20
871.58057274609598
 30
0.0
 11
1227.874738829981
 21
647.17229841509698
 31
0.0
  0
LINE
  5
53EC
  8
OUTLINE
 10
1227.874738829981
 20
871.58057274609598
 30
0.0
 11
2088.5112874709812
 21
871.58057274609598
 31
0.0
  0
LINE
  5
53ED
  8
OUTLINE
 10
2088.5112874709812
 20
647.17229841509675
 30
0.0
 11
2088.5112874709812
 21
871.58057274609598
 31
0.0
  0
LINE
  5
53EE
  8
OUTLINE
 10
2088.5112874709812
 20
647.17229841509675
 30
0.0
 11
1227.874738829981
 21
647.17229841509698
 31
0.0
  0
LINE
  5
53EF
  8
OUTLINE
 10
1227.874738829981
 20
1525.1408001150739
 30
0.0
 11
1227.874738829981
 21
1433.1408001150739
 31
0.0
  0
LINE
  5
53F0
  8
OUTLINE
 10
2088.5112874709812
 20
1433.1408001150739
 30
0.0
 11
2088.5112874709821
 21
1525.1408001150739
 31
0.0
  0
LINE
  5
53F1
  8
OUTLINE
 10
2452.0288094972311
 20
843.05543646329534
 30
0.0
 11
2452.0288094972311
 21
783.05543646329545
 31
0.0
  0
LINE
  5
53F2
  8
OUTLINE
 10
2444.0288094972311
 20
843.05543646329534
 30
0.0
 11
2444.0288094972311
 21
783.05543646329545
 31
0.0
  0
LINE
  5
53F3
  8
OUTLINE
 10
2444.0288094972311
 20
843.05543646329534
 30
0.0
 11
2452.0288094972311
 21
843.05543646329534
 31
0.0
  0
ARC
  5
53F4
  8
OUTLINE
 10
2473.5288094972311
 20
770.05543646329545
 30
0.0
 40
3.0
 50
90.0
 51
180.0
  0
LINE
  5
53F5
  8
OUTLINE
 10
2489.0288094972288
 20
773.05543646329545
 30
0.0
 11
2489.0288094972288
 21
766.05543646329545
 31
0.0
  0
ARC
  5
53F6
  8
OUTLINE
 10
2504.5288094972288
 20
770.05543646329545
 30
0.0
 40
3.0
 50
0.0
 51
90.0
  0
ARC
  5
53F7
  8
OUTLINE
 10
2454.0288094972288
 20
783.05543646329545
 30
0.0
 40
10.0
 50
180.0
 51
270.0
  0
LINE
  5
53F8
  8
OUTLINE
 10
2509.0288094972288
 20
781.05543646329545
 30
0.0
 11
2509.0288094972288
 21
773.05543646329545
 31
0.0
  0
LINE
  5
53F9
  8
OUTLINE
 10
2454.0288094972288
 20
781.05543646329545
 30
0.0
 11
2509.0288094972288
 21
781.05543646329545
 31
0.0
  0
LINE
  5
53FA
  8
OUTLINE
 10
2454.0288094972288
 20
773.05543646329545
 30
0.0
 11
2509.0288094972288
 21
773.05543646329545
 31
0.0
  0
LINE
  5
53FB
  8
OUTLINE
 10
2504.5288094972288
 20
773.05543646329545
 30
0.0
 11
2473.5288094972311
 21
773.05543646329545
 31
0.0
  0
ARC
  5
53FC
  8
OUTLINE
 10
2454.0288094972288
 20
783.05543646329545
 30
0.0
 40
2.0
 50
180.0
 51
270.0
  0
LINE
  5
53FD
  8
OUTLINE
 10
2470.5288094972288
 20
770.05543646329545
 30
0.0
 11
2470.5288094972288
 21
766.05543646329545
 31
0.0
  0
LINE
  5
53FE
  8
OUTLINE
 10
2507.5288094972288
 20
770.05543646329545
 30
0.0
 11
2507.5288094972288
 21
766.05543646329545
 31
0.0
  0
LINE
  5
53FF
  8
OUTLINE
 10
2470.5288094972288
 20
766.05543646329545
 30
0.0
 11
2507.5288094972288
 21
766.05543646329545
 31
0.0
  0
LINE
  5
5400
  8
OUTLINE
 10
1190.028809497227
 20
843.05543646329534
 30
0.0
 11
1190.028809497227
 21
783.05543646329545
 31
0.0
  0
LINE
  5
5401
  8
OUTLINE
 10
1198.028809497227
 20
843.05543646329534
 30
0.0
 11
1198.028809497227
 21
783.05543646329545
 31
0.0
  0
LINE
  5
5402
  8
OUTLINE
 10
1198.028809497227
 20
843.05543646329534
 30
0.0
 11
1190.028809497227
 21
843.05543646329534
 31
0.0
  0
ARC
  5
5403
  8
OUTLINE
 10
1168.528809497227
 20
770.05543646329545
 30
0.0
 40
3.0
 50
0.0
 51
90.0
  0
LINE
  5
5404
  8
OUTLINE
 10
1153.028809497227
 20
773.05543646329545
 30
0.0
 11
1153.028809497227
 21
766.05543646329545
 31
0.0
  0
ARC
  5
5405
  8
OUTLINE
 10
1137.528809497227
 20
770.05543646329545
 30
0.0
 40
3.0
 50
90.0
 51
180.0
  0
ARC
  5
5406
  8
OUTLINE
 10
1188.028809497227
 20
783.05543646329545
 30
0.0
 40
10.0
 50
270.0
 51
0.0
  0
LINE
  5
5407
  8
OUTLINE
 10
1133.028809497227
 20
781.05543646329545
 30
0.0
 11
1133.028809497227
 21
773.05543646329545
 31
0.0
  0
LINE
  5
5408
  8
OUTLINE
 10
1188.028809497227
 20
781.05543646329545
 30
0.0
 11
1133.028809497227
 21
781.05543646329545
 31
0.0
  0
LINE
  5
5409
  8
OUTLINE
 10
1188.028809497227
 20
773.05543646329545
 30
0.0
 11
1133.028809497227
 21
773.05543646329545
 31
0.0
  0
LINE
  5
540A
  8
OUTLINE
 10
1137.528809497227
 20
773.05543646329545
 30
0.0
 11
1168.528809497227
 21
773.05543646329545
 31
0.0
  0
ARC
  5
540B
  8
OUTLINE
 10
1188.028809497227
 20
783.05543646329545
 30
0.0
 40
2.0
 50
270.0
 51
0.0
  0
LINE
  5
540C
  8
OUTLINE
 10
1171.528809497227
 20
770.05543646329545
 30
0.0
 11
1171.528809497227
 21
766.05543646329545
 31
0.0
  0
LINE
  5
540D
  8
OUTLINE
 10
1134.528809497227
 20
770.05543646329545
 30
0.0
 11
1134.528809497227
 21
766.05543646329545
 31
0.0
  0
LINE
  5
540E
  8
OUTLINE
 10
1171.528809497227
 20
766.05543646329545
 30
0.0
 11
1134.528809497227
 21
766.05543646329545
 31
0.0
  0
LINE
  5
540F
  8
OUTLINE
 10
1235.0288094972291
 20
2134.1408001150749
 30
0.0
 11
1235.0288094972291
 21
2111.140800115073
 31
0.0
  0
LINE
  5
5410
  8
OUTLINE
 10
2107.0288094972288
 20
2134.140800115073
 30
0.0
 11
2107.0288094972288
 21
2111.140800115073
 31
0.0
  0
LINE
  5
5411
  8
OUTLINE
 10
2443.0288094972311
 20
1551.1408001150739
 30
0.0
 11
1198.02880949723
 21
1551.1408001150739
 31
0.0
  0
LINE
  5
5412
  8
OUTLINE
 10
2442.0288094972288
 20
1525.1408001150739
 30
0.0
 11
1200.02880949723
 21
1525.1408001150739
 31
0.0
  0
LINE
  5
5413
  8
OUTLINE
 10
1200.02880949723
 20
1525.1408001150739
 30
0.0
 11
1200.02880949723
 21
1551.1408001150739
 31
0.0
  0
LINE
  5
5414
  8
OUTLINE
 10
2442.0288094972288
 20
1525.1408001150739
 30
0.0
 11
2442.0288094972288
 21
1551.1408001150739
 31
0.0
  0
ARC
  5
5415
  8
OUTLINE
 10
1184.5288094972291
 20
1580.8908001150739
 30
0.0
 40
4.75
 50
0.0
 51
180.0
  0
ARC
  5
5416
  8
OUTLINE
 10
1184.5288094972291
 20
1570.3908001150739
 30
0.0
 40
4.75
 50
180.0
 51
0.0
  0
LINE
  5
5417
  8
OUTLINE
 10
1179.7788094972291
 20
1570.3908001150739
 30
0.0
 11
1179.7788094972291
 21
1580.8908001150739
 31
0.0
  0
LINE
  5
5418
  8
OUTLINE
 10
1189.2788094972291
 20
1570.3908001150739
 30
0.0
 11
1189.2788094972291
 21
1580.8908001150739
 31
0.0
  0
ARC
  5
5419
  8
OUTLINE
 10
2457.5288094972311
 20
1580.8908001150739
 30
0.0
 40
4.75
 50
0.0
 51
180.0
  0
ARC
  5
541A
  8
OUTLINE
 10
2457.5288094972311
 20
1570.3908001150739
 30
0.0
 40
4.75
 50
180.0
 51
0.0
  0
LINE
  5
541B
  8
OUTLINE
 10
2462.2788094972311
 20
1570.3908001150739
 30
0.0
 11
2462.2788094972311
 21
1580.8908001150739
 31
0.0
  0
LINE
  5
541C
  8
OUTLINE
 10
2452.7788094972311
 20
1570.3908001150739
 30
0.0
 11
2452.7788094972311
 21
1580.8908001150739
 31
0.0
  0
LINE
  5
541D
  8
OUTLINE
 10
2509.0288094972288
 20
1600.6408001150739
 30
0.0
 11
2509.0288094972288
 21
1550.6408001150739
 31
0.0
  0
CIRCLE
  5
541E
  8
OUTLINE
 10
2489.0288094972311
 20
1575.6408001150739
 30
0.0
 40
9.5
  0
LINE
  5
541F
  8
OUTLINE
 10
2509.0288094972288
 20
1598.1408001150739
 30
0.0
 11
2470.0288094972288
 21
1598.1408001150739
 31
0.0
  0
LINE
  5
5420
  8
OUTLINE
 10
2509.0288094972288
 20
1600.6408001150739
 30
0.0
 11
2470.0288094972288
 21
1600.6408001150739
 31
0.0
  0
LINE
  5
5421
  8
OUTLINE
 10
2509.0288094972288
 20
1550.6408001150739
 30
0.0
 11
2442.0288094972288
 21
1550.6408001150739
 31
0.0
  0
LINE
  5
5422
  8
OUTLINE
 10
2509.0288094972288
 20
1553.1408001150739
 30
0.0
 11
2470.0288094972311
 21
1553.1408001150739
 31
0.0
  0
LINE
  5
5423
  8
OUTLINE
 10
1133.028809497227
 20
1600.6408001150739
 30
0.0
 11
1133.028809497227
 21
1550.6408001150739
 31
0.0
  0
CIRCLE
  5
5424
  8
OUTLINE
 10
1153.0288094972259
 20
1575.6408001150739
 30
0.0
 40
9.5
  0
LINE
  5
5425
  8
OUTLINE
 10
1133.028809497227
 20
1598.1408001150739
 30
0.0
 11
1172.028809497227
 21
1598.1408001150739
 31
0.0
  0
LINE
  5
5426
  8
OUTLINE
 10
1133.028809497227
 20
1600.6408001150739
 30
0.0
 11
1172.028809497227
 21
1600.6408001150739
 31
0.0
  0
LINE
  5
5427
  8
OUTLINE
 10
1133.028809497227
 20
1550.6408001150739
 30
0.0
 11
1198.0288094972259
 21
1550.6408001150739
 31
0.0
  0
LINE
  5
5428
  8
OUTLINE
 10
1133.028809497227
 20
1553.1408001150739
 30
0.0
 11
1172.0288094972291
 21
1553.1408001150739
 31
0.0
  0
ARC
  5
5429
  8
OUTLINE
 10
1184.5288094972291
 20
2055.390800115073
 30
0.0
 40
4.75
 50
180.0
 51
0.0
  0
ARC
  5
542A
  8
OUTLINE
 10
1184.5288094972291
 20
2065.8908001150739
 30
0.0
 40
4.75
 50
0.0
 51
180.0
  0
LINE
  5
542B
  8
OUTLINE
 10
1179.7788094972291
 20
2065.8908001150739
 30
0.0
 11
1179.7788094972291
 21
2055.390800115073
 31
0.0
  0
LINE
  5
542C
  8
OUTLINE
 10
1189.2788094972291
 20
2065.8908001150739
 30
0.0
 11
1189.2788094972291
 21
2055.390800115073
 31
0.0
  0
ARC
  5
542D
  8
OUTLINE
 10
2457.5288094972311
 20
2055.3908001150749
 30
0.0
 40
4.75
 50
180.0
 51
0.0
  0
ARC
  5
542E
  8
OUTLINE
 10
2457.5288094972311
 20
2065.8908001150739
 30
0.0
 40
4.75
 50
0.0
 51
180.0
  0
LINE
  5
542F
  8
OUTLINE
 10
2462.2788094972311
 20
2065.8908001150739
 30
0.0
 11
2462.2788094972311
 21
2055.3908001150749
 31
0.0
  0
LINE
  5
5430
  8
OUTLINE
 10
2452.7788094972311
 20
2065.8908001150739
 30
0.0
 11
2452.7788094972311
 21
2055.3908001150749
 31
0.0
  0
LINE
  5
5431
  8
OUTLINE
 10
2509.0288094972288
 20
2033.6408001150739
 30
0.0
 11
2509.0288094972288
 21
2083.6408001150739
 31
0.0
  0
CIRCLE
  5
5432
  8
OUTLINE
 10
2489.0288094972311
 20
2058.6408001150739
 30
0.0
 40
9.5
  0
LINE
  5
5433
  8
OUTLINE
 10
2509.0288094972288
 20
2036.140800115076
 30
0.0
 11
2470.0288094972288
 21
2036.140800115076
 31
0.0
  0
LINE
  5
5434
  8
OUTLINE
 10
2509.0288094972288
 20
2033.6408001150739
 30
0.0
 11
2470.0288094972288
 21
2033.6408001150739
 31
0.0
  0
LINE
  5
5435
  8
OUTLINE
 10
2509.0288094972288
 20
2083.6408001150739
 30
0.0
 11
2470.0288094972311
 21
2083.6408001150739
 31
0.0
  0
LINE
  5
5436
  8
OUTLINE
 10
2509.0288094972288
 20
2081.1408001150739
 30
0.0
 11
2470.0288094972311
 21
2081.1408001150739
 31
0.0
  0
LINE
  5
5437
  8
OUTLINE
 10
1133.028809497227
 20
2033.6408001150739
 30
0.0
 11
1133.028809497227
 21
2083.6408001150739
 31
0.0
  0
CIRCLE
  5
5438
  8
OUTLINE
 10
1153.0288094972259
 20
2058.6408001150739
 30
0.0
 40
9.5
  0
LINE
  5
5439
  8
OUTLINE
 10
1133.028809497227
 20
2036.140800115076
 30
0.0
 11
1172.028809497227
 21
2036.140800115076
 31
0.0
  0
LINE
  5
543A
  8
OUTLINE
 10
1133.028809497227
 20
2033.6408001150739
 30
0.0
 11
1172.028809497227
 21
2033.6408001150739
 31
0.0
  0
LINE
  5
543B
  8
OUTLINE
 10
1133.028809497227
 20
2083.6408001150739
 30
0.0
 11
1172.0288094972291
 21
2083.6408001150739
 31
0.0
  0
LINE
  5
543C
  8
OUTLINE
 10
1133.028809497227
 20
2081.1408001150739
 30
0.0
 11
1172.0288094972291
 21
2081.1408001150739
 31
0.0
  0
LINE
  5
543D
  8
OUTLINE
 10
1172.0288094972291
 20
956.29518360327393
 30
0.0
 11
2470.0288094972288
 21
956.29518360327393
 31
0.0
  0
LINE
  5
543E
  8
OUTLINE
 10
1173.0288094972291
 20
490.2951836032737
 30
0.0
 11
2469.0288094972288
 21
490.2951836032737
 31
0.0
  0
LINE
  5
543F
  8
OUTLINE
 10
1199.0288094972291
 20
452.29514450963171
 30
0.0
 11
2444.0288094972311
 21
463.30398695336152
 31
0.0
  0
LINE
  5
5440
  8
OUTLINE
 10
2443.0288094972288
 20
1551.1408001150739
 30
0.0
 11
2470.0288094972311
 21
1551.1408001150739
 31
0.0
  0
LINE
  5
5441
  8
OUTLINE
  6
HIDDEN
 10
3112.470581255714
 20
490.29518360327341
 30
0.0
 11
3148.470581255714
 21
490.29518360327341
 31
0.0
  0
LINE
  5
5442
  8
OUTLINE
 10
2993.470581255714
 20
861.49623996798141
 30
0.0
 11
2993.4705812557149
 21
637.08796563698206
 31
0.0
  0
LINE
  5
5443
  8
OUTLINE
  6
HIDDEN
 10
3645.4705812557131
 20
955.29518360327245
 30
0.0
 11
3610.470581255714
 21
955.29518360327245
 31
0.0
  0
LINE
  5
5444
  8
OUTLINE
 10
3696.470581255714
 20
871.09518360327365
 30
0.0
 11
3696.470581255714
 21
506.29518360327307
 31
0.0
  0
LINE
  5
5445
  8
OUTLINE
 10
3671.470581255714
 20
955.29518360327245
 30
0.0
 11
3646.4705812557149
 21
955.29518360327245
 31
0.0
  0
LINE
  5
5447
  8
OUTLINE
 10
3671.470581255714
 20
955.29518360327245
 30
0.0
 11
3671.470581255714
 21
947.29518360327245
 31
0.0
  0
LINE
  5
5449
  8
OUTLINE
 10
3647.470581255714
 20
480.29518360327268
 30
0.0
 11
3111.4705812557149
 21
480.29518360327319
 31
0.0
  0
LINE
  5
544A
  8
OUTLINE
 10
3647.4705812557149
 20
457.29518360327279
 30
0.0
 11
3111.4705812557149
 21
457.29518360327279
 31
0.0
  0
LINE
  5
544B
  8
OUTLINE
 10
3647.4705812557149
 20
457.29518360327279
 30
0.0
 11
3647.470581255714
 21
490.29518360327341
 31
0.0
  0
LINE
  5
544D
  8
OUTLINE
 10
3673.4705812557158
 20
490.29518360327341
 30
0.0
 11
3673.4705812557158
 21
480.29518360327268
 31
0.0
  0
LINE
  5
544E
  8
OUTLINE
 10
3111.4705812557149
 20
457.29518360327279
 30
0.0
 11
3111.4705812557149
 21
490.29518360327341
 31
0.0
  0
LINE
  5
5450
  8
OUTLINE
 10
3085.4705812557149
 20
490.29518360327341
 30
0.0
 11
3085.4705812557149
 21
480.29518360327319
 31
0.0
  0
CIRCLE
  5
5451
  8
OUTLINE
 10
3136.970581255714
 20
762.79518360327336
 30
0.0
 40
3.5
  0
LINE
  5
5453
  8
OUTLINE
 10
2993.470581255714
 20
861.49623996798141
 30
0.0
 11
3111.470581255714
 21
861.49623996798141
 31
0.0
  0
LINE
  5
5455
  8
OUTLINE
  6
HIDDEN
 10
3111.470581255714
 20
637.08796563698206
 30
0.0
 11
2993.4705812557149
 21
637.08796563698206
 31
0.0
  0
LINE
  5
5456
  8
OUTLINE
 10
3647.470581255714
 20
506.29518360327341
 30
0.0
 11
3696.470581255714
 21
506.29518360327307
 31
0.0
  0
LINE
  5
5457
  8
OUTLINE
 10
3647.470581255714
 20
871.09518360327365
 30
0.0
 11
3696.470581255714
 21
871.09518360327365
 31
0.0
  0
POLYLINE
  5
5458
  8
OUTLINE
 66
     1
 10
0.0
 20
0.0
 30
0.0
  0
VERTEX
  5
58F8
  8
OUTLINE
 10
3228.470581255714
 20
861.29518360327324
 30
0.0
  0
VERTEX
  5
58F9
  8
OUTLINE
 10
3545.4705812557149
 20
861.29518360327324
 30
0.0
  0
SEQEND
  5
58FA
  8
OUTLINE
  0
POLYLINE
  5
5459
  8
OUTLINE
 66
     1
 10
0.0
 20
0.0
 30
0.0
  0
VERTEX
  5
58FB
  8
OUTLINE
 10
3228.470581255714
 20
520.29518360327347
 30
0.0
  0
VERTEX
  5
58FC
  8
OUTLINE
 10
3545.4705812557149
 20
520.29518360327347
 30
0.0
  0
SEQEND
  5
58FD
  8
OUTLINE
  0
POLYLINE
  5
545A
  8
OUTLINE
 66
     1
 10
0.0
 20
0.0
 30
0.0
  0
VERTEX
  5
58FE
  8
OUTLINE
 10
3545.4705812557149
 20
861.29518360327324
 30
0.0
  0
VERTEX
  5
58FF
  8
OUTLINE
 10
3545.4705812557149
 20
520.29518360327347
 30
0.0
  0
SEQEND
  5
5900
  8
OUTLINE
  0
POLYLINE
  5
545B
  8
OUTLINE
 66
     1
 10
0.0
 20
0.0
 30
0.0
  0
VERTEX
  5
5901
  8
OUTLINE
 10
3228.470581255714
 20
861.29518360327324
 30
0.0
  0
VERTEX
  5
5902
  8
OUTLINE
 10
3228.470581255714
 20
520.29518360327347
 30
0.0
  0
SEQEND
  5
5903
  8
OUTLINE
  0
LINE
  5
545C
  8
OUTLINE
 10
3647.470581255714
 20
955.29518360327404
 30
0.0
 11
3086.4705812557149
 21
955.29518360327245
 31
0.0
  0
LINE
  5
545D
  8
OUTLINE
 10
3111.470581255714
 20
955.29518360327245
 30
0.0
 11
3111.470581255714
 21
490.29518360327341
 31
0.0
  0
LINE
  5
545E
  8
OUTLINE
 10
3085.4705812557149
 20
490.29518360327341
 30
0.0
 11
3673.4705812557158
 21
490.29518360327341
 31
0.0
  0
LINE
  5
545F
  8
OUTLINE
 10
3647.470581255714
 20
490.29518360327341
 30
0.0
 11
3647.470581255714
 21
955.29518360327245
 31
0.0
  0
CIRCLE
  5
5460
  8
OUTLINE
 10
3193.470581255714
 20
910.29518360327324
 30
0.0
 40
23.0
  0
CIRCLE
  5
5461
  8
OUTLINE
 10
3268.470581255714
 20
910.29518360327324
 30
0.0
 40
23.0
  0
LINE
  5
5462
  8
OUTLINE
 10
2993.470581255714
 20
845.67658709222155
 30
0.0
 11
3111.470581255714
 21
845.67658709222155
 31
0.0
  0
LINE
  5
5463
  8
OUTLINE
 10
2993.470581255714
 20
530.68086656222192
 30
0.0
 11
3112.470581255714
 21
530.68086656222169
 31
0.0
  0
LINE
  5
5464
  8
OUTLINE
 10
2993.470581255714
 20
845.67658709222155
 30
0.0
 11
2993.470581255714
 21
530.68086656222204
 31
0.0
  0
LINE
  5
5465
  8
OUTLINE
  6
CONTINUOUS
 10
3111.9705812557149
 20
773.05543646329545
 30
0.0
 11
3161.970581255714
 21
773.05543646329545
 31
0.0
  0
LINE
  5
5466
  8
OUTLINE
 10
3161.970581255714
 20
773.05543646329545
 30
0.0
 11
3111.970581255714
 21
773.05543646329545
 31
0.0
  0
LINE
  5
5467
  8
OUTLINE
 10
3159.470581255714
 20
773.05543646329545
 30
0.0
 11
3159.470581255714
 21
843.05543646329534
 31
0.0
  0
LINE
  5
5468
  8
OUTLINE
 10
3161.970581255714
 20
773.05543646329545
 30
0.0
 11
3161.970581255714
 21
843.05543646329534
 31
0.0
  0
LINE
  5
5469
  8
OUTLINE
 10
3111.970581255714
 20
773.05543646329545
 30
0.0
 11
3111.970581255714
 21
843.05543646329534
 31
0.0
  0
LINE
  5
546A
  8
OUTLINE
 10
3114.470581255714
 20
773.05543646329545
 30
0.0
 11
3114.470581255714
 21
843.05543646329534
 31
0.0
  0
LINE
  5
546B
  8
OUTLINE
  6
CONTINUOUS
 10
3111.9705812557149
 20
843.05543646329534
 30
0.0
 11
3161.970581255714
 21
843.05543646329534
 31
0.0
  0
LINE
  5
546C
  8
OUTLINE
 10
3136.970581255714
 20
773.05543646329545
 30
0.0
 11
3136.970581255714
 21
766.05543646329545
 31
0.0
  0
LINE
  5
546D
  8
OUTLINE
 10
3118.470581255714
 20
770.05543646329545
 30
0.0
 11
3118.470581255714
 21
766.05543646329545
 31
0.0
  0
LINE
  5
546E
  8
OUTLINE
 10
3155.470581255714
 20
770.05543646329545
 30
0.0
 11
3155.470581255714
 21
766.05543646329545
 31
0.0
  0
LINE
  5
546F
  8
OUTLINE
 10
3118.470581255714
 20
766.05543646329545
 30
0.0
 11
3155.470581255714
 21
766.05543646329545
 31
0.0
  0
CIRCLE
  5
5470
  8
OUTLINE
 10
3621.9705812557149
 20
762.79518360327336
 30
0.0
 40
3.5
  0
LINE
  5
5471
  8
OUTLINE
  6
CONTINUOUS
 10
3646.9705812557149
 20
773.05543646329545
 30
0.0
 11
3596.970581255714
 21
773.05543646329545
 31
0.0
  0
LINE
  5
5472
  8
OUTLINE
 10
3596.970581255714
 20
773.05543646329545
 30
0.0
 11
3646.9705812557149
 21
773.05543646329545
 31
0.0
  0
LINE
  5
5473
  8
OUTLINE
 10
3599.470581255714
 20
773.05543646329545
 30
0.0
 11
3599.470581255714
 21
843.05543646329534
 31
0.0
  0
LINE
  5
5474
  8
OUTLINE
 10
3596.970581255714
 20
773.05543646329545
 30
0.0
 11
3596.970581255714
 21
843.05543646329534
 31
0.0
  0
LINE
  5
5475
  8
OUTLINE
 10
3646.9705812557149
 20
773.05543646329545
 30
0.0
 11
3646.9705812557149
 21
843.05543646329534
 31
0.0
  0
LINE
  5
5476
  8
OUTLINE
 10
3644.470581255714
 20
773.05543646329545
 30
0.0
 11
3644.470581255714
 21
843.05543646329534
 31
0.0
  0
LINE
  5
5477
  8
OUTLINE
  6
CONTINUOUS
 10
3646.9705812557149
 20
843.05543646329534
 30
0.0
 11
3596.970581255714
 21
843.05543646329534
 31
0.0
  0
LINE
  5
5478
  8
OUTLINE
 10
3621.9705812557149
 20
773.05543646329545
 30
0.0
 11
3621.9705812557149
 21
766.05543646329545
 31
0.0
  0
LINE
  5
5479
  8
OUTLINE
 10
3640.470581255714
 20
770.05543646329545
 30
0.0
 11
3640.470581255714
 21
766.05543646329545
 31
0.0
  0
LINE
  5
547A
  8
OUTLINE
 10
3603.470581255714
 20
770.05543646329545
 30
0.0
 11
3603.470581255714
 21
766.05543646329545
 31
0.0
  0
LINE
  5
547B
  8
OUTLINE
 10
3640.470581255714
 20
766.05543646329545
 30
0.0
 11
3603.470581255714
 21
766.05543646329545
 31
0.0
  0
LINE
  5
547C
  8
OUTLINE
  6
CONTINUOUS
 10
3086.470581255714
 20
947.29518360327245
 30
0.0
 11
3086.470581255714
 21
955.29518360327245
 31
0.0
  0
LINE
  5
54D5
  8
DIM
 62
    52
 10
1172.0288094972291
 20
1278.89401366019
 30
0.0
 11
1694.1275429897451
 21
1278.89401366019
 31
0.0
  0
LINE
  5
54D6
  8
DIM
 62
    52
 10
2470.0288094972288
 20
1278.89401366019
 30
0.0
 11
1951.9857102754879
 21
1278.89401366019
 31
0.0
  0
SOLID
  5
54D7
  8
DIM
 62
    52
 10
1202.0288094972291
 20
1283.8940136601909
 30
0.0
 11
1202.0288094972291
 21
1273.8940136601909
 31
0.0
 12
1172.0288094972291
 22
1278.89401366019
 32
0.0
 13
1172.0288094972291
 23
1278.89401366019
 33
0.0
  0
SOLID
  5
54D8
  8
DIM
 62
    52
 10
2440.0288094972311
 20
1283.8940136601909
 30
0.0
 11
2440.0288094972311
 21
1273.8940136601909
 31
0.0
 12
2470.0288094972311
 22
1278.89401366019
 32
0.0
 13
2470.0288094972311
 23
1278.89401366019
 33
0.0
  0
INSERT
  5
54D9
  8
OUTLINE
  2
*U14
 10
0.0
 20
-53.676124786335087
 30
0.0
  0
LINE
  5
54DA
  8
DIM
 62
    52
 10
2461.0288094972329
 20
1525.1408001150751
 30
0.0
 11
2684.4252965364781
 21
1525.1408001150751
 31
0.0
  0
LINE
  5
54DB
  8
DIM
 62
    52
 10
2461.0288094972329
 20
2111.140800115073
 30
0.0
 11
2684.4252965364781
 21
2111.140800115073
 31
0.0
  0
LINE
  5
54DC
  8
DIM
 62
    52
 10
2664.4252965364772
 20
1555.1408001150751
 30
0.0
 11
2664.4252965364772
 21
2111.140800115073
 31
0.0
  0
SOLID
  5
54DD
  8
DIM
 62
    52
 10
2659.4252965364781
 20
1555.1408001150751
 30
0.0
 11
2669.4252965364772
 21
1555.1408001150751
 31
0.0
 12
2664.4252965364772
 22
1525.1408001150751
 32
0.0
 13
2664.4252965364772
 23
1525.1408001150751
 33
0.0
  0
SOLID
  5
54DE
  8
DIM
 62
    52
 10
2659.4252965364781
 20
2081.140800115073
 30
0.0
 11
2669.4252965364772
 21
2081.140800115073
 31
0.0
 12
2664.4252965364772
 22
2111.140800115073
 32
0.0
 13
2664.4252965364772
 23
2111.140800115073
 33
0.0
  0
INSERT
  5
54DF
  8
OUTLINE
  2
*U15
 10
0.0
 20
-53.676124786335087
 30
0.0
  0
LINE
  5
54E0
  8
DIM
 62
    52
 10
1227.874738829981
 20
1415.9636967739241
 30
0.0
 11
1227.874738829981
 21
1336.618559465132
 31
0.0
  0
LINE
  5
54E1
  8
DIM
 62
    52
 10
1257.874738829981
 20
1359.6956605960131
 30
0.0
 11
1287.874738829981
 21
1359.6956605960131
 31
0.0
  0
SOLID
  5
54E2
  8
DIM
 62
    52
 10
1257.874738829981
 20
1364.6956605960131
 30
0.0
 11
1257.874738829981
 21
1354.6956605960131
 31
0.0
 12
1227.874738829981
 22
1359.6956605960131
 32
0.0
 13
1227.874738829981
 23
1359.6956605960131
 33
0.0
  0
LINE
  5
54E3
  8
DIM
 62
    52
 10
1227.874738829981
 20
1415.9636967739241
 30
0.0
 11
1227.874738829981
 21
1336.618559465132
 31
0.0
  0
LINE
  5
54E4
  8
DIM
 62
    52
 10
2088.5112874709812
 20
1415.9636967739241
 30
0.0
 11
2088.5112874709812
 21
1336.618559465132
 31
0.0
  0
LINE
  5
54E5
  8
DIM
 62
    52
 10
1257.874738829981
 20
1359.6956605960131
 30
0.0
 11
1599.6215845790521
 21
1359.6956605960131
 31
0.0
  0
LINE
  5
54E6
  8
DIM
 62
    52
 10
2058.5112874709812
 20
1359.6956605960131
 30
0.0
 11
1716.7644417219101
 21
1359.6956605960131
 31
0.0
  0
SOLID
  5
54E7
  8
DIM
 62
    52
 10
1257.874738829981
 20
1364.6956605960131
 30
0.0
 11
1257.874738829981
 21
1354.6956605960131
 31
0.0
 12
1227.874738829981
 22
1359.6956605960131
 32
0.0
 13
1227.874738829981
 23
1359.6956605960131
 33
0.0
  0
SOLID
  5
54E8
  8
DIM
 62
    52
 10
2058.5112874709812
 20
1364.6956605960131
 30
0.0
 11
2058.5112874709812
 21
1354.6956605960131
 31
0.0
 12
2088.5112874709812
 22
1359.6956605960131
 32
0.0
 13
2088.5112874709812
 23
1359.6956605960131
 33
0.0
  0
INSERT
  5
54E9
  8
OUTLINE
  2
*U16
 10
0.0
 20
-53.676124786335087
 30
0.0
  0
LINE
  5
54EA
  8
DIM
 62
    52
 10
2088.5112874709812
 20
1415.9636967739241
 30
0.0
 11
2088.5112874709812
 21
1336.5061560377731
 31
0.0
  0
LINE
  5
54EB
  8
DIM
 62
    52
 10
2107.0288094972288
 20
2225.3913911809282
 30
0.0
 11
2107.0288094972288
 21
2156.7247335804959
 31
0.0
  0
LINE
  5
54EC
  8
DIM
 62
    52
 10
1235.0288094972291
 20
2222.2012098025298
 30
0.0
 11
1235.0288094972291
 21
2186.026378953386
 31
0.0
  0
LINE
  5
54ED
  8
DIM
 62
    52
 10
2077.0288094972288
 20
2206.026378953386
 30
0.0
 11
1729.6002380686571
 21
2206.026378953386
 31
0.0
  0
LINE
  5
54EE
  8
DIM
 62
    52
 10
1265.0288094972291
 20
2206.026378953386
 30
0.0
 11
1612.4573809258
 21
2206.026378953386
 31
0.0
  0
SOLID
  5
54EF
  8
DIM
 62
    52
 10
2077.0288094972288
 20
2211.026378953386
 30
0.0
 11
2077.0288094972288
 21
2201.026378953386
 31
0.0
 12
2107.0288094972288
 22
2206.026378953386
 32
0.0
 13
2107.0288094972288
 23
2206.026378953386
 33
0.0
  0
SOLID
  5
54F0
  8
DIM
 62
    52
 10
1265.0288094972291
 20
2211.026378953386
 30
0.0
 11
1265.0288094972291
 21
2201.026378953386
 31
0.0
 12
1235.0288094972291
 22
2206.026378953386
 32
0.0
 13
1235.0288094972291
 23
2206.026378953386
 33
0.0
  0
INSERT
  5
54F1
  8
OUTLINE
  2
*U17
 10
0.0
 20
-53.676124786335087
 30
0.0
  0
LINE
  5
54F2
  8
DIM
 62
    52
 10
1198.0288094972291
 20
2127.9578544094279
 30
0.0
 11
1198.0288094972291
 21
2226.0184269422848
 31
0.0
  0
LINE
  5
54F3
  8
DIM
 62
    52
 10
1235.0288094972291
 20
2156.7247335804959
 30
0.0
 11
1235.0288094972291
 21
2225.391391180925
 31
0.0
  0
LINE
  5
54F4
  8
DIM
 62
    52
 10
1168.0288094972291
 20
2206.0184269422848
 30
0.0
 11
1138.0288094972291
 21
2206.0184269422848
 31
0.0
  0
LINE
  5
54F5
  8
DIM
 62
    52
 10
1265.0288094972291
 20
2206.0184269422848
 30
0.0
 11
1295.0288094972291
 21
2206.0184269422848
 31
0.0
  0
INSERT
  5
54F6
  8
OUTLINE
  2
*U18
 10
0.0
 20
-53.676124786335087
 30
0.0
  0
SOLID
  5
54F7
  8
DIM
 62
    52
 10
1168.0288094972291
 20
2211.0184269422848
 30
0.0
 11
1168.0288094972291
 21
2201.0184269422848
 31
0.0
 12
1198.0288094972291
 22
2206.0184269422848
 32
0.0
 13
1198.0288094972291
 23
2206.0184269422848
 33
0.0
  0
SOLID
  5
54F8
  8
DIM
 62
    52
 10
1265.0288094972291
 20
2211.0184269422848
 30
0.0
 11
1265.0288094972291
 21
2201.0184269422848
 31
0.0
 12
1235.0288094972291
 22
2206.0184269422848
 32
0.0
 13
1235.0288094972291
 23
2206.0184269422848
 33
0.0
  0
LINE
  5
54F9
  8
DIM
 62
    52
 10
2107.0288094972288
 20
2187.140800115073
 30
0.0
 11
2107.0288094972288
 21
2226.2179000437682
 31
0.0
  0
LINE
  5
54FA
  8
DIM
 62
    52
 10
2444.0288094972311
 20
2106.1408001150739
 30
0.0
 11
2444.0288094972311
 21
2226.2179000437682
 31
0.0
  0
LINE
  5
54FB
  8
DIM
 62
    52
 10
2137.0288094972288
 20
2206.2179000437682
 30
0.0
 11
2216.9573809258009
 21
2206.2179000437682
 31
0.0
  0
LINE
  5
54FC
  8
DIM
 62
    52
 10
2414.0288094972311
 20
2206.2179000437682
 30
0.0
 11
2334.1002380686591
 21
2206.2179000437682
 31
0.0
  0
SOLID
  5
54FD
  8
DIM
 62
    52
 10
2137.0288094972288
 20
2211.2179000437691
 30
0.0
 11
2137.0288094972288
 21
2201.2179000437691
 31
0.0
 12
2107.0288094972288
 22
2206.2179000437682
 32
0.0
 13
2107.0288094972288
 23
2206.2179000437682
 33
0.0
  0
SOLID
  5
54FE
  8
DIM
 62
    52
 10
2414.0288094972311
 20
2211.2179000437691
 30
0.0
 11
2414.0288094972311
 21
2201.2179000437691
 31
0.0
 12
2444.0288094972311
 22
2206.2179000437682
 32
0.0
 13
2444.0288094972311
 23
2206.2179000437682
 33
0.0
  0
INSERT
  5
54FF
  8
OUTLINE
  2
*U19
 10
0.0
 20
-53.676124786335087
 30
0.0
  0
LINE
  5
5501
  8
DIM
 62
    52
 10
1143.02880949723
 20
1360.1139347624969
 30
0.0
 11
1113.02880949723
 21
1360.1139347624969
 31
0.0
  0
LINE
  5
5502
  8
DIM
 62
    52
 10
1257.874738829981
 20
1360.1139347624969
 30
0.0
 11
1287.874738829981
 21
1360.1139347624969
 31
0.0
  0
INSERT
  5
5503
  8
OUTLINE
  2
*U20
 10
0.0
 20
-53.676124786335087
 30
0.0
  0
SOLID
  5
5504
  8
DIM
 62
    52
 10
1143.02880949723
 20
1365.113934762496
 30
0.0
 11
1143.02880949723
 21
1355.113934762498
 31
0.0
 12
1173.02880949723
 22
1360.1139347624969
 32
0.0
 13
1173.02880949723
 23
1360.1139347624969
 33
0.0
  0
SOLID
  5
5505
  8
DIM
 62
    52
 10
1257.874738829981
 20
1365.113934762496
 30
0.0
 11
1257.874738829981
 21
1355.113934762498
 31
0.0
 12
1227.874738829981
 22
1360.1139347624969
 32
0.0
 13
1227.874738829981
 23
1360.1139347624969
 33
0.0
  0
LINE
  5
5506
  8
DIM
 62
    52
 10
2088.5112874709812
 20
1415.9636967739241
 30
0.0
 11
2088.5112874709812
 21
1334.987140376277
 31
0.0
  0
LINE
  5
5507
  8
DIM
 62
    52
 10
2508.0288094972329
 20
1575.6408001150739
 30
0.0
 11
2592.6635254880448
 21
1575.6408001150739
 31
0.0
  0
LINE
  5
5508
  8
DIM
 62
    52
 10
2508.0288094972329
 20
2060.6408001150739
 30
0.0
 11
2592.6635254880448
 21
2060.6408001150739
 31
0.0
  0
LINE
  5
5509
  8
DIM
 62
    52
 10
2572.6635254880448
 20
1605.6408001150739
 30
0.0
 11
2572.6635254880448
 21
2060.6408001150739
 31
0.0
  0
SOLID
  5
550A
  8
DIM
 62
    52
 10
2567.6635254880448
 20
1605.6408001150739
 30
0.0
 11
2577.6635254880448
 21
1605.6408001150739
 31
0.0
 12
2572.6635254880448
 22
1575.6408001150739
 32
0.0
 13
2572.6635254880448
 23
1575.6408001150739
 33
0.0
  0
SOLID
  5
550B
  8
DIM
 62
    52
 10
2567.2807476933531
 20
2030.6408001150739
 30
0.0
 11
2577.2807476933531
 21
2030.6408001150739
 31
0.0
 12
2572.280747693354
 22
2060.6408001150739
 32
0.0
 13
2572.280747693354
 23
2060.6408001150739
 33
0.0
  0
LINE
  5
550D
  8
DIM
 62
    52
 10
1172.0288094972291
 20
1259.579579344688
 30
0.0
 11
1172.0288094972291
 21
1495.712318602554
 31
0.0
  0
LINE
  5
550E
  8
DIM
 62
    52
 10
2470.0288094972288
 20
1259.579579344688
 30
0.0
 11
2470.0288094972311
 21
1495.712318602554
 31
0.0
  0
LINE
  5
550F
  8
DIM
 10
1916.8119072648799
 20
2047.79849539112
 30
0.0
 11
1916.8119072648799
 21
2067.6426741839218
 31
0.0
  0
LINE
  5
5510
  8
DIM
 10
1933.148458448062
 20
2047.79849539112
 30
0.0
 11
1916.8119072648799
 21
2047.79849539112
 31
0.0
  0
LINE
  5
5511
  8
DIM
 10
1909.2135113657271
 20
2010.9417036656939
 30
0.0
 11
1933.148458448062
 21
2047.79849539112
 31
0.0
  0
LINE
  5
5512
  8
DIM
 10
1901.615115466572
 20
2067.6426741839218
 30
0.0
 11
1916.8119072648799
 21
2067.6426741839218
 31
0.0
  0
LINE
  5
5513
  8
DIM
 10
1901.615115466572
 20
2047.79849539112
 30
0.0
 11
1901.615115466572
 21
2067.6426741839218
 31
0.0
  0
LINE
  5
5514
  8
DIM
 10
1885.2785642833919
 20
2047.79849539112
 30
0.0
 11
1901.615115466572
 21
2047.79849539112
 31
0.0
  0
LINE
  5
5515
  8
DIM
 10
1909.2135113657271
 20
2010.9417036656939
 30
0.0
 11
1885.2785642833919
 21
2047.79849539112
 31
0.0
  0
LINE
  5
5516
  8
DIM
 10
1450.128322886653
 20
2047.79849539112
 30
0.0
 11
1450.128322886653
 21
2067.6426741839218
 31
0.0
  0
LINE
  5
5517
  8
DIM
 10
1466.4648740698351
 20
2047.79849539112
 30
0.0
 11
1450.128322886653
 21
2047.79849539112
 31
0.0
  0
LINE
  5
5518
  8
DIM
 10
1442.5299269874999
 20
2010.9417036656939
 30
0.0
 11
1466.4648740698351
 21
2047.79849539112
 31
0.0
  0
LINE
  5
5519
  8
DIM
 10
1434.931531088346
 20
2067.6426741839218
 30
0.0
 11
1450.128322886653
 21
2067.6426741839218
 31
0.0
  0
LINE
  5
551A
  8
DIM
 10
1434.931531088346
 20
2047.79849539112
 30
0.0
 11
1434.931531088346
 21
2067.6426741839218
 31
0.0
  0
LINE
  5
551B
  8
DIM
 10
1418.5949799051659
 20
2047.79849539112
 30
0.0
 11
1434.931531088346
 21
2047.79849539112
 31
0.0
  0
LINE
  5
551C
  8
DIM
 10
1442.5299269874999
 20
2010.9417036656939
 30
0.0
 11
1418.5949799051659
 21
2047.79849539112
 31
0.0
  0
LINE
  5
551E
  8
DIM
  6
CONTINUOUS
 62
    52
 10
1207.874738829981
 20
1433.1408001150739
 30
0.0
 11
987.43236709452458
 21
1433.1408001150739
 31
0.0
  0
LINE
  5
551F
  8
DIM
  6
CONTINUOUS
 62
    52
 10
1215.0288094972291
 20
2134.1408001150749
 30
0.0
 11
987.43236709452458
 21
2134.1408001150749
 31
0.0
  0
LINE
  5
5520
  8
DIM
  6
CONTINUOUS
 62
    52
 10
1007.432367094525
 20
1463.1408001150739
 30
0.0
 11
1007.432367094525
 21
1664.35508582936
 31
0.0
  0
LINE
  5
5521
  8
DIM
  6
CONTINUOUS
 62
    52
 10
1007.432367094525
 20
2104.1408001150749
 30
0.0
 11
1007.432367094525
 21
1902.9265144007891
 31
0.0
  0
SOLID
  5
5522
  8
DIM
  6
CONTINUOUS
 62
    52
 10
1002.432367094525
 20
1463.1408001150739
 30
0.0
 11
1012.432367094525
 21
1463.1408001150739
 31
0.0
 12
1007.432367094525
 22
1433.1408001150739
 32
0.0
 13
1007.432367094525
 23
1433.1408001150739
 33
0.0
  0
SOLID
  5
5523
  8
DIM
  6
CONTINUOUS
 62
    52
 10
1002.432367094525
 20
2104.1408001150749
 30
0.0
 11
1012.432367094525
 21
2104.1408001150749
 31
0.0
 12
1007.432367094525
 22
2134.1408001150749
 32
0.0
 13
1007.432367094525
 23
2134.1408001150749
 33
0.0
  0
INSERT
  5
5524
  8
OUTLINE
  2
*U21
 10
0.0
 20
-53.676124786335087
 30
0.0
  0
LINE
  5
5533
  8
DIM
 10
1916.8119072648799
 20
1606.89940759307
 30
0.0
 11
1916.8119072648799
 21
1626.743586385873
 31
0.0
  0
LINE
  5
5534
  8
DIM
 10
1933.148458448062
 20
1606.89940759307
 30
0.0
 11
1916.8119072648799
 21
1606.89940759307
 31
0.0
  0
LINE
  5
5535
  8
DIM
 10
1909.2135113657271
 20
1570.0426158676451
 30
0.0
 11
1933.148458448062
 21
1606.89940759307
 31
0.0
  0
LINE
  5
5536
  8
DIM
 10
1901.615115466572
 20
1626.743586385873
 30
0.0
 11
1916.8119072648799
 21
1626.743586385873
 31
0.0
  0
LINE
  5
5537
  8
DIM
 10
1901.615115466572
 20
1606.89940759307
 30
0.0
 11
1901.615115466572
 21
1626.743586385873
 31
0.0
  0
LINE
  5
5538
  8
DIM
 10
1885.2785642833919
 20
1606.89940759307
 30
0.0
 11
1901.615115466572
 21
1606.89940759307
 31
0.0
  0
LINE
  5
5539
  8
DIM
 10
1909.2135113657271
 20
1570.0426158676451
 30
0.0
 11
1885.2785642833919
 21
1606.89940759307
 31
0.0
  0
LINE
  5
553A
  8
DIM
 10
1450.128322886653
 20
1606.89940759307
 30
0.0
 11
1450.128322886653
 21
1626.743586385873
 31
0.0
  0
LINE
  5
553B
  8
DIM
 10
1466.4648740698351
 20
1606.89940759307
 30
0.0
 11
1450.128322886653
 21
1606.89940759307
 31
0.0
  0
LINE
  5
553C
  8
DIM
 10
1442.5299269874999
 20
1570.0426158676451
 30
0.0
 11
1466.4648740698351
 21
1606.89940759307
 31
0.0
  0
LINE
  5
553D
  8
DIM
 10
1434.931531088346
 20
1626.743586385873
 30
0.0
 11
1450.128322886653
 21
1626.743586385873
 31
0.0
  0
LINE
  5
553E
  8
DIM
 10
1434.931531088346
 20
1606.89940759307
 30
0.0
 11
1434.931531088346
 21
1626.743586385873
 31
0.0
  0
LINE
  5
553F
  8
DIM
 10
1418.5949799051659
 20
1606.89940759307
 30
0.0
 11
1434.931531088346
 21
1606.89940759307
 31
0.0
  0
LINE
  5
5540
  8
DIM
 10
1442.5299269874999
 20
1570.0426158676451
 30
0.0
 11
1418.5949799051659
 21
1606.89940759307
 31
0.0
  0
LINE
  5
5577
  8
DIM
 62
    52
 10
3045.4705812557231
 20
488.29518360327319
 30
0.0
 11
2856.8743843465149
 21
488.29518360327319
 31
0.0
  0
LINE
  5
5578
  8
DIM
 62
    52
 10
2861.6638063655341
 20
488.29518360327319
 30
0.0
 11
2854.9204527905799
 21
488.29518360327319
 31
0.0
  0
LINE
  5
5579
  8
DIM
 62
    52
 10
2997.7790322768292
 20
488.29518360327319
 30
0.0
 11
2856.2763946076921
 21
488.29518360327319
 31
0.0
  0
LINE
  5
557A
  8
DIM
 62
    52
 10
2856.6724238819561
 20
518.29518360327324
 30
0.0
 11
2856.6724238819561
 21
663.2237550318448
 31
0.0
  0
LINE
  5
557B
  8
DIM
 62
    52
 10
2856.672423881957
 20
955.29518360327404
 30
0.0
 11
2856.6724238819561
 21
780.36661217470146
 31
0.0
  0
SOLID
  5
557C
  8
DIM
 62
    52
 10
2851.6724238819561
 20
518.29518360327324
 30
0.0
 11
2861.6724238819561
 21
518.29518360327324
 31
0.0
 12
2856.6724238819561
 22
488.29518360327319
 32
0.0
 13
2856.6724238819561
 23
488.29518360327319
 33
0.0
  0
SOLID
  5
557D
  8
DIM
 62
    52
 10
2851.6724238819561
 20
925.29518360327336
 30
0.0
 11
2861.672423881957
 21
925.29518360327336
 31
0.0
 12
2856.672423881957
 22
955.29518360327245
 32
0.0
 13
2856.672423881957
 23
955.29518360327245
 33
0.0
  0
INSERT
  5
557E
  8
OUTLINE
  2
*U26
 10
-28.643215799143949
 20
-53.676124786335087
 30
0.0
  0
LINE
  5
557F
  8
DIM
 62
    52
 10
3071.7684106542042
 20
955.29518360327404
 30
0.0
 11
2856.672423881957
 21
955.29518360327404
 31
0.0
  0
LINE
  5
5580
  8
DIM
 62
    52
 10
2979.8666105299799
 20
636.08796563698195
 30
0.0
 11
2932.7265167182968
 21
636.08796563698195
 31
0.0
  0
LINE
  5
5581
  8
DIM
 62
    52
 10
2952.7265167182982
 20
666.08796563698206
 30
0.0
 11
2952.7265167182982
 21
859.4962399679813
 31
0.0
  0
SOLID
  5
5583
  8
DIM
 62
    52
 10
2947.7265167182982
 20
666.08796563698206
 30
0.0
 11
2957.7265167182968
 21
666.08796563698206
 31
0.0
 12
2952.7265167182982
 22
636.08796563698195
 32
0.0
 13
2952.7265167182982
 23
636.08796563698195
 33
0.0
  0
LINE
  5
5584
  8
DIM
 62
    52
 10
2979.8666105299799
 20
636.08796563698195
 30
0.0
 11
2932.7265167182968
 21
636.08796563698195
 31
0.0
  0
LINE
  5
5585
  8
DIM
 62
    52
 10
2981.009043995291
 20
861.49623996798141
 30
0.0
 11
2933.8689501836102
 21
861.49623996798141
 31
0.0
  0
LINE
  5
5586
  8
DIM
 62
    52
 10
2952.7265167182982
 20
839.49623996798152
 30
0.0
 11
2952.7265167182982
 21
817.07781708819562
 31
0.0
  0
SOLID
  5
5587
  8
DIM
 62
    52
 10
2947.7265167182982
 20
666.08796563698206
 30
0.0
 11
2957.7265167182968
 21
666.08796563698206
 31
0.0
 12
2952.7265167182982
 22
636.08796563698195
 32
0.0
 13
2952.7265167182982
 23
636.08796563698195
 33
0.0
  0
SOLID
  5
5588
  8
DIM
 62
    52
 10
2947.7265167182982
 20
831.49623996798152
 30
0.0
 11
2957.7265167182968
 21
831.49623996798152
 31
0.0
 12
2952.7265167182982
 22
861.49623996798141
 32
0.0
 13
2952.7265167182982
 23
861.49623996798141
 33
0.0
  0
LINE
  5
558D
  8
DIM
 62
    52
 10
3086.470581255714
 20
975.29518360327302
 30
0.0
 11
3086.470581255714
 21
1097.6318636960359
 31
0.0
  0
LINE
  5
558E
  8
DIM
 62
    52
 10
3193.4705812557131
 20
929.29518360327324
 30
0.0
 11
3193.4705812557131
 21
1097.6318636960359
 31
0.0
  0
LINE
  5
558F
  8
DIM
 62
    52
 10
3116.470581255714
 20
1077.6318636960359
 30
0.0
 11
3163.470581255714
 21
1077.6318636960359
 31
0.0
  0
INSERT
  5
5590
  8
OUTLINE
  2
*U27
 10
-28.643215799143949
 20
-53.676124786335087
 30
0.0
  0
SOLID
  5
5591
  8
DIM
 62
    52
 10
3116.470581255714
 20
1082.6318636960359
 30
0.0
 11
3116.470581255714
 21
1072.6318636960359
 31
0.0
 12
3086.470581255714
 22
1077.6318636960359
 32
0.0
 13
3086.470581255714
 23
1077.6318636960359
 33
0.0
  0
SOLID
  5
5592
  8
DIM
 62
    52
 10
3163.470581255714
 20
1082.6318636960359
 30
0.0
 11
3163.470581255714
 21
1072.6318636960359
 31
0.0
 12
3193.4705812557131
 22
1077.6318636960359
 32
0.0
 13
3193.4705812557131
 23
1077.6318636960359
 33
0.0
  0
LINE
  5
5593
  8
DIM
 62
    52
 10
3193.4705812557131
 20
929.29518360327324
 30
0.0
 11
3193.4705812557131
 21
1097.6318636960359
 31
0.0
  0
LINE
  5
5594
  8
DIM
 62
    52
 10
3268.4705812557131
 20
929.29518360327324
 30
0.0
 11
3268.4705812557131
 21
1097.6318636960359
 31
0.0
  0
LINE
  5
5595
  8
DIM
 62
    52
 10
3163.470581255714
 20
1077.6318636960359
 30
0.0
 11
3133.4705812557131
 21
1077.6318636960359
 31
0.0
  0
LINE
  5
5596
  8
DIM
 62
    52
 10
3298.4705812557131
 20
1077.6318636960359
 30
0.0
 11
3328.470581255714
 21
1077.6318636960359
 31
0.0
  0
INSERT
  5
5597
  8
OUTLINE
  2
*U28
 10
-28.643215799143949
 20
-53.676124786335087
 30
0.0
  0
SOLID
  5
5598
  8
DIM
 62
    52
 10
3163.470581255714
 20
1082.6318636960359
 30
0.0
 11
3163.470581255714
 21
1072.6318636960359
 31
0.0
 12
3193.4705812557131
 22
1077.6318636960359
 32
0.0
 13
3193.4705812557131
 23
1077.6318636960359
 33
0.0
  0
SOLID
  5
5599
  8
DIM
 62
    52
 10
3298.4705812557131
 20
1082.6318636960359
 30
0.0
 11
3298.4705812557131
 21
1072.6318636960359
 31
0.0
 12
3268.4705812557131
 22
1077.6318636960359
 32
0.0
 13
3268.4705812557131
 23
1077.6318636960359
 33
0.0
  0
LINE
  5
559A
  8
DIM
 62
    52
 10
3408.9406177899191
 20
909.29518360327324
 30
0.0
 11
3291.4488318418671
 21
909.29518360327324
 31
0.0
  0
LINE
  5
559B
  8
DIM
 62
    52
 10
3392.0745988686681
 20
879.29518360327324
 30
0.0
 11
3392.0745988686681
 21
849.29518360327336
 31
0.0
  0
LINE
  5
559C
  8
DIM
 62
    52
 10
3392.0745988686681
 20
985.29518360327393
 30
0.0
 11
3392.0745988686681
 21
1015.295183603274
 31
0.0
  0
INSERT
  5
559D
  8
OUTLINE
  2
*U29
 10
-28.643215799143949
 20
-53.676124786335087
 30
0.0
  0
SOLID
  5
559E
  8
DIM
 62
    52
 10
3387.0745988686672
 20
879.29518360327324
 30
0.0
 11
3397.0745988686681
 21
879.29518360327324
 31
0.0
 12
3392.0745988686681
 22
909.29518360327324
 32
0.0
 13
3392.0745988686681
 23
909.29518360327324
 33
0.0
  0
SOLID
  5
559F
  8
DIM
 62
    52
 10
3387.0745988686672
 20
985.29518360327393
 30
0.0
 11
3397.0745988686681
 21
985.29518360327393
 31
0.0
 12
3392.0745988686681
 22
955.29518360327404
 32
0.0
 13
3392.0745988686681
 23
955.29518360327404
 33
0.0
  0
INSERT
  5
55A0
  8
OUTLINE
  2
*U30
 10
-28.643215799143949
 20
-53.676124786335087
 30
0.0
  0
INSERT
  5
55B7
  8
DIM
  2
A$C397249ED
 10
3320.8318232607112
 20
670.67014786514915
 30
0.0
  0
INSERT
  5
55B8
  8
DIM
  2
A$C397249ED
 10
3774.072970484212
 20
670.67014786514915
 30
0.0
  0
LINE
  5
55E4
  8
DIM
 62
    52
 10
1185.52880949723
 20
963.85664092520483
 30
0.0
 11
1185.52880949723
 21
1050.562266170896
 31
0.0
  0
LINE
  5
55E5
  8
DIM
 62
    52
 10
2456.5288094972288
 20
963.85664092520483
 30
0.0
 11
2456.5288094972288
 21
1050.562266170896
 31
0.0
  0
LINE
  5
55E6
  8
DIM
 62
    52
 10
1215.52880949723
 20
1030.562266170896
 30
0.0
 11
1617.620374351985
 21
1030.562266170896
 31
0.0
  0
LINE
  5
55E7
  8
DIM
 62
    52
 10
2426.5288094972288
 20
1030.562266170896
 30
0.0
 11
2022.205824156219
 21
1030.562266170896
 31
0.0
  0
SOLID
  5
55E8
  8
DIM
 62
    52
 10
1215.52880949723
 20
1035.562266170896
 30
0.0
 11
1215.52880949723
 21
1025.562266170896
 31
0.0
 12
1185.52880949723
 22
1030.562266170896
 32
0.0
 13
1185.52880949723
 23
1030.562266170896
 33
0.0
  0
SOLID
  5
55E9
  8
DIM
 62
    52
 10
2426.5288094972288
 20
1035.562266170896
 30
0.0
 11
2426.5288094972288
 21
1025.562266170896
 31
0.0
 12
2456.5288094972288
 22
1030.562266170896
 32
0.0
 13
2456.5288094972288
 23
1030.562266170896
 33
0.0
  0
INSERT
  5
55EA
  8
OUTLINE
  2
*U36
 10
0.0
 20
-53.676124786335087
 30
0.0
  0
LINE
  5
55EB
  8
DIM
 62
    52
 10
1179.0288094972291
 20
452.29518360327302
 30
0.0
 11
977.92915787611832
 21
452.29518360327302
 31
0.0
  0
LINE
  5
55EC
  8
DIM
 62
    52
 10
1152.0288094972291
 20
956.29518360327393
 30
0.0
 11
977.92915787611832
 21
956.29518360327393
 31
0.0
  0
LINE
  5
55ED
  8
DIM
  6
CONTINUOUS
 62
    52
 10
1153.028809497227
 20
802.39064198705262
 30
0.0
 11
1153.028809497227
 21
1121.052039135463
 31
0.0
  0
LINE
  5
55EE
  8
DIM
  6
CONTINUOUS
 62
    52
 10
2489.0288094972311
 20
802.39064198705262
 30
0.0
 11
2489.0288094972311
 21
1121.052039135463
 31
0.0
  0
LINE
  5
55EF
  8
DIM
  6
CONTINUOUS
 62
    52
 10
1183.028809497227
 20
1101.052039135463
 30
0.0
 11
1399.215832207512
 21
1101.052039135463
 31
0.0
  0
LINE
  5
55F0
  8
DIM
  6
CONTINUOUS
 62
    52
 10
2459.0288094972311
 20
1101.052039135463
 30
0.0
 11
2244.1907602312181
 21
1101.052039135463
 31
0.0
  0
SOLID
  5
55F1
  8
DIM
  6
CONTINUOUS
 62
    52
 10
1183.028809497227
 20
1106.0520391354621
 30
0.0
 11
1183.028809497227
 21
1096.052039135463
 31
0.0
 12
1153.028809497227
 22
1101.052039135463
 32
0.0
 13
1153.028809497227
 23
1101.052039135463
 33
0.0
  0
SOLID
  5
55F2
  8
DIM
  6
CONTINUOUS
 62
    52
 10
2459.0288094972311
 20
1106.0520391354621
 30
0.0
 11
2459.0288094972311
 21
1096.052039135463
 31
0.0
 12
2489.0288094972311
 22
1101.052039135463
 32
0.0
 13
2489.0288094972311
 23
1101.052039135463
 33
0.0
  0
INSERT
  5
55F3
  8
OUTLINE
  2
*U37
 10
0.0
 20
-53.676124786335087
 30
0.0
  0
LINE
  5
55F4
  8
DIM
 62
    52
 10
1122.2904261460239
 20
781.05543646329545
 30
0.0
 11
1064.8851650733759
 21
781.05543646329591
 31
0.0
  0
LINE
  5
55F5
  8
DIM
 62
    52
 10
1091.6543760981201
 20
956.29518360327393
 30
0.0
 11
1064.8851650733759
 21
956.29518360327393
 31
0.0
  0
LINE
  5
55F6
  8
DIM
 62
    52
 10
1084.8851650733759
 20
751.05543646329591
 30
0.0
 11
1084.8851650733759
 21
721.05543646329545
 31
0.0
  0
LINE
  5
55F7
  8
DIM
 62
    52
 10
1084.8851650733759
 20
986.29518360327381
 30
0.0
 11
1084.8851650733759
 21
1016.295183603274
 31
0.0
  0
SOLID
  5
55F8
  8
DIM
 62
    52
 10
1079.8851650733759
 20
751.05543646329591
 30
0.0
 11
1089.8851650733759
 21
751.05543646329591
 31
0.0
 12
1084.8851650733759
 22
781.05543646329591
 32
0.0
 13
1084.8851650733759
 23
781.05543646329591
 33
0.0
  0
SOLID
  5
55F9
  8
DIM
 62
    52
 10
1079.8851650733759
 20
986.29518360327381
 30
0.0
 11
1089.8851650733759
 21
986.29518360327381
 31
0.0
 12
1084.8851650733759
 22
956.29518360327393
 32
0.0
 13
1084.8851650733759
 23
956.29518360327393
 33
0.0
  0
LINE
  5
55FB
  8
DIM
 62
    52
 10
1030.8655779066339
 20
452.29518360327302
 30
0.0
 11
1034.28792293732
 21
452.29518360327302
 31
0.0
  0
LINE
  5
55FC
  8
DIM
 62
    52
 10
1030.8655779066339
 20
956.29518360327393
 30
0.0
 11
1034.28792293732
 21
956.29518360327393
 31
0.0
  0
LINE
  5
55FD
  8
DIM
 62
    52
 10
1014.287922937321
 20
482.29518360327347
 30
0.0
 11
1014.287922937321
 21
646.43804074613035
 31
0.0
  0
LINE
  5
55FE
  8
DIM
 62
    52
 10
1014.287922937321
 20
926.29518360327393
 30
0.0
 11
1014.287922937321
 21
762.15232646041636
 31
0.0
  0
SOLID
  5
55FF
  8
DIM
 62
    52
 10
1009.287922937321
 20
482.29518360327347
 30
0.0
 11
1019.287922937321
 21
482.29518360327347
 31
0.0
 12
1014.287922937321
 22
452.29518360327302
 32
0.0
 13
1014.287922937321
 23
452.29518360327302
 33
0.0
  0
SOLID
  5
5600
  8
DIM
 62
    52
 10
1009.287922937321
 20
926.29518360327393
 30
0.0
 11
1019.287922937321
 21
926.29518360327393
 31
0.0
 12
1014.287922937321
 22
956.29518360327393
 32
0.0
 13
1014.287922937321
 23
956.29518360327393
 33
0.0
  0
INSERT
  5
5601
  8
OUTLINE
  2
*U39
 10
0.0
 20
-53.676124786335087
 30
0.0
  0
LINE
  5
5602
  8
DIM
 62
    52
 10
2490.0288094972288
 20
956.29518360327393
 30
0.0
 11
2612.94024474752
 21
956.29518360327393
 31
0.0
  0
LINE
  5
5603
  8
DIM
 62
    52
 10
2464.0288094972311
 20
463.30398695336231
 30
0.0
 11
2612.94024474752
 21
463.30398695336231
 31
0.0
  0
LINE
  5
5604
  8
DIM
 62
    52
 10
2592.94024474752
 20
926.29518360327393
 30
0.0
 11
2592.94024474752
 21
768.37101384974653
 31
0.0
  0
LINE
  5
5605
  8
DIM
 62
    52
 10
2592.94024474752
 20
493.30398695336203
 30
0.0
 11
2592.94024474752
 21
651.22815670688965
 31
0.0
  0
SOLID
  5
5606
  8
DIM
 62
    52
 10
2587.9402447475209
 20
926.29518360327393
 30
0.0
 11
2597.9402447475209
 21
926.29518360327393
 31
0.0
 12
2592.94024474752
 22
956.29518360327393
 32
0.0
 13
2592.94024474752
 23
956.29518360327393
 33
0.0
  0
SOLID
  5
5607
  8
DIM
 62
    52
 10
2587.9402447475209
 20
493.30398695336203
 30
0.0
 11
2597.9402447475209
 21
493.30398695336203
 31
0.0
 12
2592.94024474752
 22
463.30398695336231
 32
0.0
 13
2592.94024474752
 23
463.30398695336231
 33
0.0
  0
INSERT
  5
5608
  8
OUTLINE
  2
*U40
 10
0.0
 20
-53.676124786335087
 30
0.0
  0
INSERT
  5
5609
  8
OUTLINE
  2
*U41
 10
0.0
 20
-53.676124786335087
 30
0.0
  0
LINE
  5
560A
  8
DIM
 62
    52
 10
2952.7265167182982
 20
861.49623996798141
 30
0.0
 11
2952.7265167182982
 21
955.29518360327404
 31
0.0
  0
INSERT
  5
560B
  8
OUTLINE
  2
*U42
 10
-28.643215799143949
 20
-53.676124786335087
 30
0.0
  0
TEXT
  5
5636
  8
TEXT
 10
2950.3387395236441
 20
253.60864928069989
 30
0.0
 40
50.0
  1
temperzone HWP 141
  7
TITLE5
 72
     1
 11
3344.386358571262
 21
253.60864928069989
 31
0.0
  0
TEXT
  5
5637
  8
TEXT
 10
3443.6255227830638
 20
62.635627151569679
 30
0.0
 40
30.0
  1
HWP 141
 41
1.460353027110459
  7
TITLE3
 72
     5
 11
3708.5752862731042
 21
62.635627151569679
 31
0.0
  0
TEXT
  5
5638
  8
OVERLAY-A3
 10
2847.2885441441222
 20
110.8312138601009
 30
0.0
 40
24.0
  1
Date
  7
SIMPLEX
  0
TEXT
  5
5639
  8
OVERLAY-A3
 10
3746.1111923736021
 20
129.50330202341121
 30
0.0
 40
24.0
  1
Revision
 41
0.7812095035934773
  7
SIMPLEX
 72
     5
 11
3851.4628740010648
 21
129.50330202341121
 31
0.0
  0
LINE
  5
563A
  8
OVERLAY-A3
 10
3734.4913499901609
 20
20.842492848317139
 30
0.0
 11
3734.4913499901609
 21
168.2686557085465
 31
0.0
  0
LINE
  5
563B
  8
OVERLAY-A3
 10
2819.3515294571471
 20
337.34263345436813
 30
0.0
 11
2819.3515294571471
 21
20.842492848317139
 31
0.0
  0
LINE
  5
563C
  8
OVERLAY-A3
 10
3416.9136780130939
 20
20.842492848317139
 30
0.0
 11
3416.9136780130939
 21
168.2686557085465
 31
0.0
  0
LINE
  5
563D
  8
OVERLAY-A3
 10
3416.9136780130939
 20
93.312599269463774
 30
0.0
 11
2819.3515294571471
 21
93.312599269463774
 31
0.0
  0
LINE
  5
563E
  8
OVERLAY-A3
 10
3861.5754652378409
 20
168.2686557085465
 30
0.0
 11
2819.3515294571471
 21
168.2686557085465
 31
0.0
  0
LINE
  5
563F
  8
OVERLAY-A3
 10
2819.3515294571471
 20
20.842492848317139
 30
0.0
 11
3861.277958059492
 21
20.842492848317139
 31
0.0
  0
LINE
  5
5640
  8
OVERLAY-A3
 10
3861.277958059492
 20
20.842492848317139
 30
0.0
 11
3861.277958059492
 21
337.34263345436813
 31
0.0
  0
LINE
  5
5641
  8
OVERLAY-A3
 10
3861.277958059492
 20
337.34263345436813
 30
0.0
 11
2819.3515294571471
 21
337.34263345436813
 31
0.0
  0
TEXT
  5
5642
  8
OVERLAY-A3
 10
2844.4832191031091
 20
47.922488065357669
 30
0.0
 40
20.0
  1
Scale
 41
1.3701747965659721
  7
SIMPLEX
 72
     5
 11
2944.9627041846138
 21
47.922488065357669
 31
0.0
  0
TEXT
  5
5643
  8
OVERLAY-A3
 10
3474.8591236007978
 20
128.8934315067097
 30
0.0
 40
20.0
  1
Drawing No.
  7
SIMPLEX
 72
     2
 11
3649.1448378865121
 21
128.8934315067097
 31
0.0
  0
TEXT
  5
5644
  8
TEXT
 10
2950.7035006619162
 20
110.0
 30
0.0
 40
25.0
  1
12.10.12
 41
1.101639344262292
  7
TITLE3
 72
     5
 11
3110.7035006619149
 21
110.0
 31
0.0
  0
TEXT
  5
5645
  8
TEXT
 10
3001.04344477519
 20
47.498612732809299
 30
0.0
 40
25.0
  1
1:10
  7
TITLE3
  0
LINE
  5
5732
  8
OUTLINE
 10
1972.0801977413771
 20
1028.7746717838829
 30
0.0
 11
1975.660591671905
 21
1028.7746717838829
 31
0.0
  0
SOLID
  5
5808
  8
DIM
 62
    52
 10
2947.7265167182982
 20
891.4962399679813
 30
0.0
 11
2957.7265167182968
 21
891.4962399679813
 31
0.0
 12
2952.7265167182982
 22
861.49623996798141
 32
0.0
 13
2952.7265167182982
 23
861.49623996798141
 33
0.0
  0
SOLID
  5
5809
  8
DIM
 62
    52
 10
2947.7265167182982
 20
925.29518360327393
 30
0.0
 11
2957.7265167182968
 21
925.29518360327393
 31
0.0
 12
2952.7265167182982
 22
955.29518360327404
 32
0.0
 13
2952.7265167182982
 23
955.29518360327404
 33
0.0
  0
LINE
  5
5A88
  8
DIM
 10
3716.470581255714
 20
506.29518360327307
 30
0.0
 11
3753.4214432021081
 21
506.29518360327307
 31
0.0
  0
LINE
  5
5A89
  8
DIM
 10
3716.470581255714
 20
871.09518360327365
 30
0.0
 11
3753.4214432021081
 21
871.09518360327365
 31
0.0
  0
LINE
  5
5A8A
  8
DIM
 10
3733.421443202109
 20
536.29518360327324
 30
0.0
 11
3733.421443202109
 21
635.36185026994008
 31
0.0
  0
LINE
  5
5A8B
  8
DIM
 10
3733.421443202109
 20
841.09518360327365
 30
0.0
 11
3733.421443202109
 21
742.02851693660671
 31
0.0
  0
SOLID
  5
5A8C
  8
DIM
 10
3728.4214432021081
 20
536.29518360327324
 30
0.0
 11
3738.421443202109
 21
536.29518360327324
 31
0.0
 12
3733.421443202109
 22
506.29518360327307
 32
0.0
 13
3733.421443202109
 23
506.29518360327307
 33
0.0
  0
SOLID
  5
5A8D
  8
DIM
 10
3728.4214432021081
 20
841.09518360327365
 30
0.0
 11
3738.421443202109
 21
841.09518360327365
 31
0.0
 12
3733.421443202109
 22
871.09518360327365
 32
0.0
 13
3733.421443202109
 23
871.09518360327365
 33
0.0
  0
INSERT
  5
5A8E
  8
DIM
  2
*U43
 10
0.0
 20
0.0
 30
0.0
  0
LINE
  5
5A8F
  8
DIM
 10
3716.470581255714
 20
871.09518360327365
 30
0.0
 11
3753.4214432021081
 21
871.09518360327365
 31
0.0
  0
LINE
  5
5A90
  8
DIM
 10
3692.4705812557131
 20
956.29518360327233
 30
0.0
 11
3753.4214432021081
 21
956.29518360327233
 31
0.0
  0
LINE
  5
5A91
  8
DIM
 10
3733.421443202109
 20
841.09518360327365
 30
0.0
 11
3733.421443202109
 21
811.09518360327365
 31
0.0
  0
LINE
  5
5A92
  8
DIM
 10
3733.421443202109
 20
986.29518360327245
 30
0.0
 11
3733.421443202109
 21
1016.295183603273
 31
0.0
  0
SOLID
  5
5A93
  8
DIM
 10
3728.4214432021081
 20
841.09518360327365
 30
0.0
 11
3738.421443202109
 21
841.09518360327365
 31
0.0
 12
3733.421443202109
 22
871.09518360327365
 32
0.0
 13
3733.421443202109
 23
871.09518360327365
 33
0.0
  0
SOLID
  5
5A94
  8
DIM
 10
3728.421443202109
 20
986.29518360327245
 30
0.0
 11
3738.421443202109
 21
986.29518360327245
 31
0.0
 12
3733.421443202109
 22
956.29518360327233
 32
0.0
 13
3733.421443202109
 23
956.29518360327233
 33
0.0
  0
INSERT
  5
5A95
  8
DIM
  2
*U44
 10
0.0
 20
0.0
 30
0.0
  0
TEXT
  5
5BD0
  8
DIM
 62
    50
 10
1099.8851650733759
 20
832.96102431899908
 30
0.0
 40
30.0
  1
185
 50
90.0
  7
TITLE3
  0
LINE
  5
5C05
  8
OUTLINE
 10
3111.4705812557158
 20
463.30398695336152
 30
0.0
 11
3647.4705812557158
 21
463.30398695336152
 31
0.0
  0
ENDSEC
  0
EOF
