  0
SECTION
  2
HEADER
  9
$ACADVER
  1
AC1009
  9
$INSBASE
 10
0.0
 20
0.0
 30
0.0
  9
$EXTMIN
 10
-150.7206758733973118
 20
0.0
 30
-0.0000000188571338
  9
$EXTMAX
 10
5236.6666666666651508
 20
4321.4820693865121939
 30
0.0000000188571338
  9
$LIMMIN
 10
0.0
 20
0.0
  9
$LIMMAX
 10
3890.0
 20
2660.0
  9
$ORTHOMODE
 70
     1
  9
$REGENMODE
 70
     1
  9
$FILLMODE
 70
     1
  9
$QTEXTMODE
 70
     0
  9
$MIRRTEXT
 70
     0
  9
$DRAGMODE
 70
     2
  9
$LTSCALE
 40
300.0
  9
$OSMODE
 70
  4095
  9
$ATTMODE
 70
     1
  9
$TEXTSIZE
 40
40.0
  9
$TRACEWID
 40
0.05
  9
$TEXTSTYLE
  7
TITLE3
  9
$CLAYER
  8
0
  9
$CELTYPE
  6
BYLAYER
  9
$CECOLOR
 62
   256
  9
$DIMSCALE
 40
1.0
  9
$DIMASZ
 40
0.12
  9
$DIMEXO
 40
0.05
  9
$DIMDLI
 40
0.5
  9
$DIMRND
 40
0.0
  9
$DIMDLE
 40
0.0
  9
$DIMEXE
 40
0.1
  9
$DIMTP
 40
0.1
  9
$DIMTM
 40
0.1
  9
$DIMTXT
 40
0.12
  9
$DIMCEN
 40
0.0
  9
$DIMTSZ
 40
0.0
  9
$DIMTOL
 70
     0
  9
$DIMLIM
 70
     0
  9
$DIMTIH
 70
     1
  9
$DIMTOH
 70
     1
  9
$DIMSE1
 70
     0
  9
$DIMSE2
 70
     0
  9
$DIMTAD
 70
     0
  9
$DIMZIN
 70
     7
  9
$DIMBLK
  1

  9
$DIMASO
 70
     0
  9
$DIMSHO
 70
     0
  9
$DIMPOST
  1

  9
$DIMAPOST
  1
mm
  9
$DIMALT
 70
     0
  9
$DIMALTD
 70
     2
  9
$DIMALTF
 40
25.3999999999999986
  9
$DIMLFAC
 40
1.0
  9
$DIMTOFL
 70
     0
  9
$DIMTVP
 40
0.0
  9
$DIMTIX
 70
     0
  9
$DIMSOXD
 70
     0
  9
$DIMSAH
 70
     0
  9
$DIMBLK1
  1

  9
$DIMBLK2
  1

  9
$DIMSTYLE
  2
AM_ANSI
  9
$DIMCLRD
 70
   256
  9
$DIMCLRE
 70
   256
  9
$DIMCLRT
 70
     2
  9
$DIMTFAC
 40
0.71
  9
$DIMGAP
 40
0.06
  9
$LUNITS
 70
     2
  9
$LUPREC
 70
     2
  9
$SKETCHINC
 40
0.1
  9
$FILLETRAD
 40
0.0
  9
$AUNITS
 70
     0
  9
$AUPREC
 70
     2
  9
$MENU
  1
\acad12\support\cnc
  9
$ELEVATION
 40
0.0
  9
$PELEVATION
 40
0.0
  9
$THICKNESS
 40
0.0
  9
$LIMCHECK
 70
     0
  9
$BLIPMODE
 70
     0
  9
$CHAMFERA
 40
0.0
  9
$CHAMFERB
 40
0.0
  9
$SKPOLY
 70
     0
  9
$TDCREATE
 40
2451029.6179050919599831
  9
$TDUPDATE
 40
2458192.6131250001490116
  9
$TDINDWG
 40
1.3031857292
  9
$TDUSRTIMER
 40
1.303179375
  9
$USRTIMER
 70
     1
  9
$ANGBASE
 50
0.0
  9
$ANGDIR
 70
     0
  9
$PDMODE
 70
     2
  9
$PDSIZE
 40
5.0
  9
$PLINEWID
 40
0.0
  9
$COORDS
 70
     1
  9
$SPLFRAME
 70
     0
  9
$SPLINETYPE
 70
     6
  9
$SPLINESEGS
 70
     8
  9
$ATTDIA
 70
     1
  9
$ATTREQ
 70
     1
  9
$HANDLING
 70
     1
  9
$HANDSEED
  5
ED17
  9
$SURFTAB1
 70
     6
  9
$SURFTAB2
 70
     6
  9
$SURFTYPE
 70
     6
  9
$SURFU
 70
     6
  9
$SURFV
 70
     6
  9
$UCSNAME
  2

  9
$UCSORG
 10
0.0
 20
0.0
 30
0.0
  9
$UCSXDIR
 10
1.0
 20
0.0
 30
0.0
  9
$UCSYDIR
 10
0.0
 20
1.0
 30
0.0
  9
$PUCSNAME
  2

  9
$PUCSORG
 10
0.0
 20
0.0
 30
0.0
  9
$PUCSXDIR
 10
1.0
 20
0.0
 30
0.0
  9
$PUCSYDIR
 10
0.0
 20
1.0
 30
0.0
  9
$USERI1
 70
     0
  9
$USERI2
 70
     0
  9
$USERI3
 70
     0
  9
$USERI4
 70
     0
  9
$USERI5
 70
     0
  9
$USERR1
 40
0.0
  9
$USERR2
 40
0.0
  9
$USERR3
 40
0.0
  9
$USERR4
 40
0.0
  9
$USERR5
 40
0.0
  9
$WORLDVIEW
 70
     1
  9
$SHADEDGE
 70
     3
  9
$SHADEDIF
 70
    70
  9
$TILEMODE
 70
     1
  9
$MAXACTVP
 70
    16
  9
$PLIMCHECK
 70
     0
  9
$PEXTMIN
 10
1.0000000000000000E+20
 20
1.0000000000000000E+20
 30
1.0000000000000000E+20
  9
$PEXTMAX
 10
-1.0000000000000000E+20
 20
-1.0000000000000000E+20
 30
-1.0000000000000000E+20
  9
$PLIMMIN
 10
0.0
 20
0.0
  9
$PLIMMAX
 10
12.0
 20
9.0
  9
$UNITMODE
 70
     0
  9
$VISRETAIN
 70
     0
  9
$PLINEGEN
 70
     0
  9
$PSLTSCALE
 70
     0
  0
ENDSEC
  0
SECTION
  2
TABLES
  0
TABLE
  2
VPORT
 70
     1
  0
VPORT
  2
*ACTIVE
 70
     0
 10
0.0
 20
0.0
 11
1.0
 21
1.0
 12
-240.5430713755044962
 22
-609.3880136887657955
 13
0.0
 23
0.0
 14
25.0
 24
25.0
 15
100.0
 25
100.0
 16
-0.0000000000040927
 26
0.0
 36
18112.5755859425007657
 17
2542.9729156494140625
 27
2160.740966796875
 37
0.0
 40
4417.8119331922762285
 41
1.9174406604747161
 42
50.0
 43
0.0
 44
0.0
 50
0.0
 51
0.0
 71
     0
 72
   100
 73
     1
 74
     0
 75
     0
 76
     1
 77
     0
 78
     0
  0
ENDTAB
  0
TABLE
  2
LTYPE
 70
     8
  0
LTYPE
  2
CONTINUOUS
 70
     0
  3
Solid line
 72
    65
 73
     0
 40
0.0
  0
LTYPE
  2
HIDDEN
 70
     0
  3
Hidden __ __ __ __ __ __ __ __ __ __ __ __ __ _
 72
    65
 73
     2
 40
0.375
 49
0.25
 49
-0.125
  0
LTYPE
  2
PHANTOM2
 70
     0
  3
Phantom (.5x) ___ _ _ ___ _ _ ___ _ _ ___ _ _
 72
    65
 73
     6
 40
1.25
 49
0.625
 49
-0.125
 49
0.125
 49
-0.125
 49
0.125
 49
-0.125
  0
LTYPE
  2
HIDDEN2
 70
     0
  3
Hidden (.5x) _ _ _ _ _ _ _ _ _ _ _ _ _ _ _ _ _
 72
    65
 73
     2
 40
0.1875
 49
0.125
 49
-0.0625
  0
LTYPE
  2
ACANSTGL
 70
     0
  3
_ _ _ _ _
 72
    65
 73
     2
 40
0.11811023622
 49
0.07874015748
 49
-0.03937007874
  0
LTYPE
  2
DOUBLE_DASH_CHAIN
 70
     0
  3

 72
    65
 73
     6
 40
17.0999994501471484
 49
9.1199997067451495
 49
-1.139999963343143
 49
2.279999926686286
 49
-1.139999963343143
 49
2.279999926686286
 49
-1.139999963343143
  0
ENDTAB
  0
TABLE
  2
LAYER
 70
     4
  0
LAYER
  2
0
 70
     0
 62
     7
  6
CONTINUOUS
  0
LAYER
  2
DIM
 70
     0
 62
     7
  6
CONTINUOUS
  0
LAYER
  2
VISIBLE
 70
     0
 62
     7
  6
CONTINUOUS
  0
LAYER
  2
REFERENCE
 70
     0
 62
     7
  6
DOUBLE_DASH_CHAIN
  0
ENDTAB
  0
TABLE
  2
STYLE
 70
     5
  0
STYLE
  2
STANDARD
 70
     0
 40
0.0
 41
1.0
 50
0.0
 71
     0
 42
0.2
  3
txt
  4

  0
STYLE
  2
TITLE3
 70
     0
 40
40.0
 41
1.0
 50
0.0
 71
     0
 42
40.0
  3
SIMPLEX.shx
  4

  0
STYLE
  2
SIMPLEX
 70
     0
 40
40.0
 41
1.0
 50
0.0
 71
     0
 42
25.0
  3
SIMPLEX
  4

  0
STYLE
  2
TITLE5
 70
     0
 40
50.0
 41
1.0
 50
0.0
 71
     0
 42
50.0
  3
SIMPLEX.shx
  4

  0
STYLE
  2
NOTE_TEXT__ISO_
 70
     0
 40
0.0
 41
1.0
 50
0.0
 71
     0
 42
0.2
  3
txt
  4

  0
ENDTAB
  0
TABLE
  2
VIEW
 70
     0
  0
ENDTAB
  0
TABLE
  2
UCS
 70
     0
  0
ENDTAB
  0
TABLE
  2
APPID
 70
    35
  0
APPID
  2
ACAD
 70
     0
  0
APPID
  2
ACADANNOTATIVE
 70
     0
  0
APPID
  2
ACAD_MLEADERVER
 70
     0
  0
APPID
  2
DCO15
 70
     0
  0
APPID
  2
GENIUS_GENDIM_13
 70
     0
  0
APPID
  2
GENIUS_GENDTOL_13
 70
     0
  0
APPID
  2
GENIUS_GE3DTOL_13
 70
     0
  0
APPID
  2
MCAD_NO_VIS
 70
     0
  0
APPID
  2
ACAD_TEMP_GRAPHIC
 70
     0
  0
APPID
  2
AD_DRAW
 70
     0
  0
APPID
  2
ACATTRIBSERVICES
 70
     0
  0
APPID
  2
ASURF_PCURVE_APPNAME
 70
     0
  0
APPID
  2
AMG_3D2D_5_0
 70
     0
  0
APPID
  2
DESIGNERASSEMBLIES
 70
     0
  0
APPID
  2
ACADM_DIM_EDIT
 70
     0
  0
APPID
  2
AMDT_DM_ADJ
 70
     0
  0
APPID
  2
ACAD_PSEXT
 70
     0
  0
APPID
  2
ACAD_EXEMPT_FROM_CAD_STANDARDS
 70
     0
  0
APPID
  2
AMG_3D2D_5_00
 70
     0
  0
APPID
  2
AMG_3D2D_5_01
 70
     0
  0
APPID
  2
AMG_3D2D_5_02
 70
     0
  0
APPID
  2
AMG_3D2D_5_03
 70
     0
  0
APPID
  2
AMG_3D2D_5_04
 70
     0
  0
APPID
  2
AMG_3D2D_5_05
 70
     0
  0
APPID
  2
AMG_3D2D_5_06
 70
     0
  0
APPID
  2
AMG_3D2D_5_07
 70
     0
  0
APPID
  2
AMG_3D2D_5_08
 70
     0
  0
APPID
  2
ACAD_DSTYLE_DIMARC_LENGTH_
 70
     0
  0
APPID
  2
ACAD_DSTYLE_DIM_LINETYPE
 70
     0
  0
APPID
  2
ACAD_DSTYLE_DIM_EXT1_LINETYPE
 70
     0
  0
APPID
  2
ACAD_DSTYLE_DIM_EXT2_LINETYPE
 70
     0
  0
APPID
  2
ACAD_DSTYLE_DIMBREAK
 70
     0
  0
APPID
  2
ACAD_DSTYLE_DIMJAG
 70
     0
  0
APPID
  2
ACAD_NAV_VCDISPLAY
 70
     0
  0
APPID
  2
IDW_INSPOINT
 70
     0
  0
ENDTAB
  0
TABLE
  2
DIMSTYLE
 70
     3
  0
DIMSTYLE
  2
STANDARD
 70
     0
  3

  4

  5

  6

  7

 40
1.0
 41
0.18
 42
0.0625
 43
0.38
 44
0.18
 45
0.0
 46
0.0
 47
0.0
 48
0.0
140
0.18
141
0.09
142
0.0
143
25.3999999999999986
144
1.0
145
0.0
146
1.0
147
0.09
 71
     0
 72
     0
 73
     1
 74
     1
 75
     0
 76
     0
 77
     0
 78
     0
170
     0
171
     2
172
     0
173
     0
174
     0
175
     0
176
     0
177
     0
178
     0
  0
DIMSTYLE
  2
AM_ANSI
 70
     0
  3

  4
mm
  5

  6

  7

 40
1.0
 41
0.12
 42
0.05
 43
0.5
 44
0.1
 45
0.0
 46
0.0
 47
0.1
 48
0.1
140
0.12
141
0.0
142
0.0
143
25.3999999999999986
144
1.0
145
0.0
146
0.71
147
0.06
 71
     0
 72
     0
 73
     1
 74
     1
 75
     0
 76
     0
 77
     0
 78
     7
170
     0
171
     2
172
     0
173
     0
174
     0
175
     0
176
   256
177
   256
178
     2
  0
ENDTAB
  0
ENDSEC
  0
SECTION
  2
BLOCKS
  0
BLOCK
  8
0
  2
$MODEL_SPACE
 70
     0
 10
0.0
 20
0.0
 30
0.0
  3
$MODEL_SPACE
  1

  0
ENDBLK
  5
822A
  8
0
  0
BLOCK
 67
     1
  8
0
  2
$PAPER_SPACE
 70
     0
 10
0.0
 20
0.0
 30
0.0
  3
$PAPER_SPACE
  1

  0
ENDBLK
  5
8226
 67
     1
  8
0
  0
BLOCK
  8
0
  2
LINES
 70
     0
 10
0.0
 20
0.0
 30
0.0
  3
LINES
  1

  0
ENDBLK
  5
5C9B
  8
0
  0
BLOCK
  8
0
  2
FILLED-1
 70
     0
 10
0.0
 20
0.0
 30
0.0
  3
FILLED-1
  1

  0
LINE
  5
86C4
  8
0
 62
     0
 10
-1.0
 20
0.0
 30
0.0
 11
0.0
 21
0.0
 31
0.0
  0
SOLID
  5
86C5
  8
0
 62
     0
 10
-1.0
 20
-0.2
 30
0.0
 11
0.0
 21
0.0
 31
0.0
 12
-1.0
 22
0.2
 32
0.0
 13
-1.0
 23
0.2
 33
0.0
  0
LINE
  5
86C6
  8
0
 62
     0
 10
-1.0
 20
-0.2
 30
0.0
 11
0.0
 21
0.0
 31
0.0
  0
LINE
  5
86C7
  8
0
 62
     0
 10
0.0
 20
0.0
 30
0.0
 11
-1.0
 21
0.2
 31
0.0
  0
LINE
  5
86C8
  8
0
 62
     0
 10
-1.0
 20
0.2
 30
0.0
 11
-1.0
 21
-0.2
 31
0.0
  0
ENDBLK
  5
86C9
  8
0
  0
ENDSEC
  0
SECTION
  2
ENTITIES
  0
TEXT
  5
5CA6
  8
0
 62
     7
 10
3682.9358167502127799
 20
414.1304592494566919
 30
0.0
 40
59.9999999984999874
  1
temperzone OPA 186RKTYH UC7
  7
TITLE5
 72
     1
 11
4428.6501024458557367
 21
414.1304592494566919
 31
0.0
  0
TEXT
  5
5CA7
  8
0
 62
     7
 10
4549.874689667545681
 20
83.7566360024172667
 30
0.0
 40
39.9999999989999893
  1
OPA186RKTYH UC7
 41
0.7897622041731529
  7
TITLE3
 72
     5
 11
4999.6630687949163985
 21
83.7566360024172667
 31
0.0
  0
TEXT
  5
5CA8
  8
0
 62
     7
 10
3768.6501024623557896
 20
324.276737223278019
 30
0.0
 40
59.9999999984999874
  1
FOOT MTD HORIZ DISCHARGE
  7
TITLE5
 72
     1
 11
4428.6501024458557367
 21
324.276737223278019
 31
0.0
  0
INSERT
  5
5CA9
  8
DIM
  2
LINES
 10
331.1690179110167946
 20
3587.5048377685579908
 30
0.0
  0
TEXT
  5
5CAA
  8
0
 62
     7
 10
3859.405677331329116
 20
146.6666666630000009
 30
0.0
 40
39.9999999989999893
  1
14-03-18
 41
0.7088607594936823
  7
TITLE3
 72
     5
 11
4072.7390106593320525
 21
146.6666666630000009
 31
0.0
  0
LINE
  5
5CCE
  8
0
 62
     7
 10
667.4474203392142044
 20
2206.4850197497889894
 30
0.0
 11
1767.4512223408039517
 21
2206.4850197497889894
 31
0.0
  0
LINE
  5
5CD7
  8
0
 62
     7
 10
1767.4512223408039517
 20
3389.4850197497921727
 30
0.0
 11
1767.4512223408039517
 21
2206.4850197497889894
 31
0.0
  0
LINE
  5
5CF1
  8
0
 62
     7
 10
1767.4474203392130676
 20
1265.5712442416629528
 30
0.0
 11
667.4474203392134086
 21
1265.5712442416620434
 31
0.0
  0
LINE
  5
5CF2
  8
0
 62
     7
 10
667.4474203392134086
 20
1265.5712442416620434
 30
0.0
 11
667.4474203392142044
 21
329.9667511965836866
 31
0.0
  0
LINE
  5
5CF7
  8
0
 62
     7
 10
1767.4474203392139771
 20
329.9667511965836866
 30
0.0
 11
1767.4474203392130676
 21
1265.5712442416629528
 31
0.0
  0
LINE
  5
5CF9
  8
0
 62
     7
 10
1826.4474203392139771
 20
835.9667511965834592
 30
0.0
 11
1826.4474203392139771
 21
396.966751196583516
 31
0.0
  0
INSERT
  5
5D33
  8
DIM
  2
LINES
 10
254.3613510031640885
 20
12950.844675060670852
 30
0.0
  0
INSERT
  5
5D34
  8
DIM
  2
LINES
 10
4447.4749797806316565
 20
10493.2569070502504474
 30
0.0
  0
TEXT
  5
5D35
  8
DIM
 10
9638.0424665801456285
 20
11898.1701107899498311
 30
0.0
 40
15.0
  1

  7
TITLE3
 72
     1
 11
9638.0424665801456285
 21
11898.1701107899498311
 31
0.0
  0
TEXT
  5
5D36
  8
DIM
 10
9638.0424665801456285
 20
11898.1701107899498311
 30
0.0
 40
15.0
  1

  7
TITLE3
 72
     1
 11
9638.0424665801456285
 21
11898.1701107899498311
 31
0.0
  0
TEXT
  5
5D37
  8
DIM
 10
14638.0424665801401716
 20
11898.1701107899498311
 30
0.0
 40
15.0
  1

  7
TITLE3
 72
     1
 11
14638.0424665801401716
 21
11898.1701107899498311
 31
0.0
  0
TEXT
  5
5D38
  8
DIM
 10
14638.0424665801401716
 20
11898.1701107899498311
 30
0.0
 40
15.0
  1

  7
TITLE3
 72
     1
 11
14638.0424665801401716
 21
11898.1701107899498311
 31
0.0
  0
LINE
  5
5D39
  8
0
 62
     7
 10
1116.3729790082859381
 20
1182.1353984256938929
 30
0.0
 11
1077.0729790082850741
 21
1221.4353984256899821
 31
0.0
  0
LINE
  5
5D3A
  8
0
 62
     7
 10
1037.7729790082848922
 20
1182.1353984256938929
 30
0.0
 11
1077.0729790082850741
 21
1221.4353984256899821
 31
0.0
  0
LINE
  5
5D3B
  8
0
 62
     7
 10
1062.3729790082850286
 20
1126.6353984256938929
 30
0.0
 11
1091.7729790082848922
 21
1126.6353984256938929
 31
0.0
  0
LINE
  5
5D3C
  8
0
 62
     7
 10
1091.7729790082848922
 20
1126.6353984256938929
 30
0.0
 11
1091.7729790082848922
 21
1182.1353984256938929
 31
0.0
  0
LINE
  5
5D3D
  8
0
 62
     7
 10
1091.7729790082848922
 20
1182.1353984256938929
 30
0.0
 11
1116.3729790082859381
 21
1182.1353984256938929
 31
0.0
  0
LINE
  5
5D3E
  8
0
 62
     7
 10
1062.3729790082850286
 20
1126.6353984256938929
 30
0.0
 11
1062.3729790082850286
 21
1182.1353984256938929
 31
0.0
  0
LINE
  5
5D3F
  8
0
 62
     7
 10
1062.3729790082850286
 20
1182.1353984256938929
 30
0.0
 11
1037.7729790082848922
 21
1182.1353984256938929
 31
0.0
  0
TEXT
  5
5D40
  8
0
 62
     7
 10
3685.1343123913229647
 20
147.7749518134679079
 30
0.0
 40
31.9999999999999893
  1
Date
  7
SIMPLEX
  0
TEXT
  5
5D41
  8
0
 62
     7
 10
5044.8149231648030764
 20
172.6710693645480887
 30
0.0
 40
31.9999999999999893
  1
Revision
 41
0.7812095035934778
  7
SIMPLEX
 72
     5
 11
5185.2838320014197961
 21
172.6710693645480887
 31
0.0
  0
LINE
  5
5D42
  8
0
 62
     7
 10
5029.3217999868793413
 20
27.7899904644228393
 30
0.0
 11
5029.3217999868793413
 21
224.3582076113954997
 31
0.0
  0
LINE
  5
5D43
  8
0
 62
     7
 10
3656.5201304667189106
 20
502.9529712891393842
 30
0.0
 11
3656.5201304667189106
 21
27.7899904644228393
 31
0.0
  0
LINE
  5
5D45
  8
0
 62
     7
 10
4521.6496647619860596
 20
124.4167990259515051
 30
0.0
 11
3656.5201304667189106
 21
124.4167990259515051
 31
0.0
  0
LINE
  5
5D46
  8
0
 62
     7
 10
5198.7672869837870167
 20
224.3582076113954997
 30
0.0
 11
3656.5201304667189106
 21
224.3582076113954997
 31
0.0
  0
LINE
  5
5D47
  8
0
 62
     7
 10
3656.5201304667189106
 20
27.7899904644228499
 30
0.0
 11
5198.3706107459847772
 21
27.7899904644228393
 31
0.0
  0
LINE
  5
5D48
  8
0
 62
     7
 10
5198.3706107459847772
 20
27.7899904644228393
 30
0.0
 11
5198.3706107459847772
 21
502.9529712891393842
 31
0.0
  0
LINE
  5
5D49
  8
0
 62
     7
 10
5198.3706107459847772
 20
502.9529712891393842
 30
0.0
 11
3656.5201304667189106
 21
502.9529712891393842
 31
0.0
  0
TEXT
  5
5D4A
  8
0
 62
     7
 10
3686.1949039952269231
 20
63.896650753810242
 30
0.0
 40
26.6666666666666607
  1
Scale
 41
1.3701747965659661
  7
SIMPLEX
 72
     5
 11
3820.1675507705658674
 21
63.896650753810242
 31
0.0
  0
TEXT
  5
5D4B
  8
0
 62
     7
 10
4652.2715790048450799
 20
162.2812113470301938
 30
0.0
 40
26.6666666666666607
  1
Drawing No.
  7
SIMPLEX
 72
     2
 11
4884.6525313857973742
 21
162.2812113470301938
 31
0.0
  0
LINE
  5
5D4C
  8
0
 62
     7
 10
-150.7206758733973118
 20
0.0
 30
0.0
 11
5236.6666666666651508
 21
0.0
 31
0.0
  0
LINE
  5
5D4D
  8
0
 62
     7
 10
5236.6666666666651508
 20
0.0
 30
0.0
 11
5236.6666666666642413
 21
4321.4820693865121939
 31
0.0
  0
LINE
  5
5D4E
  8
0
 62
     7
 10
5236.6666666666642413
 20
4321.4820693865121939
 30
0.0
 11
-150.7206758733973118
 21
4321.4820693865121939
 31
0.0
  0
LINE
  5
5D4F
  8
0
 62
     7
 10
-150.7206758733973118
 20
4321.4820693865121939
 30
0.0
 11
-150.7206758733973118
 21
0.0
 31
0.0
  0
TEXT
  5
5D51
  8
0
 62
     7
 10
3891.3771723420968556
 20
60.615948988497621
 30
0.0
 40
40.0
  1
1:20
  7
TITLE3
  0
LINE
  5
5D54
  8
0
  6
PHANTOM2
 62
     7
 10
163.4476343184763891
 20
3389.4850197497921727
 30
0.0
 11
163.4476343184763891
 21
2206.4850197497889894
 31
0.0
  0
LINE
  5
5D55
  8
0
  6
PHANTOM2
 62
     7
 10
667.4474203392142044
 20
1706.4850197497889894
 30
0.0
 11
1767.4512223408039517
 21
1706.4850197497889894
 31
0.0
  0
LINE
  5
5D56
  8
0
  6
PHANTOM2
 62
     7
 10
633.5888836038856198
 20
3389.4850197497921727
 30
0.0
 11
163.4476343184763891
 21
3389.4850197497921727
 31
0.0
  0
LINE
  5
5D57
  8
0
  6
PHANTOM2
 62
     7
 10
633.5888836038856198
 20
2206.4850197497889894
 30
0.0
 11
163.4476343184763891
 21
2206.4850197497889894
 31
0.0
  0
LINE
  5
5D59
  8
0
  6
PHANTOM2
 62
     7
 10
1767.4512223408039517
 20
2160.7640624368132194
 30
0.0
 11
1767.4512223408039517
 21
1706.4850197497889894
 31
0.0
  0
TEXT
  5
5D5A
  8
0
 62
     7
 10
851.5117718842097929
 20
1731.1337801686991043
 30
0.0
 40
40.0
  1
500 min CLEARANCE
  7
TITLE3
  0
TEXT
  5
5D5B
  8
0
 62
     7
 10
237.6143634521644969
 20
2500.5864909161819014
 30
0.0
 40
40.0
  1
500 min CLEARANCE
 50
90.0
  7
TITLE3
  0
TEXT
  5
5D5C
  8
0
 62
     7
 10
958.9676040630774878
 20
3023.9542644402458791
 30
0.0
 40
62.9999999984249968
  1
OPA
  7
TITLE5
 72
     1
 11
1047.4676040608649146
 21
3023.9542644402458791
 31
0.0
  0
TEXT
  5
5D5E
  8
0
 62
     7
 10
761.2234062226866627
 20
765.0044587864422283
 30
0.0
 40
62.9999999984249968
  1
OPA186RKTYH UC7
  7
TITLE5
 72
     1
 11
1209.7234062114739572
 21
765.0044587864422283
 31
0.0
  0
LINE
  5
5D5F
  8
0
 62
     7
 10
667.4474203392142044
 20
3389.4850197497921727
 30
0.0
 11
1767.4512223408039517
 21
3389.4850197497921727
 31
0.0
  0
LINE
  5
5D6C
  8
0
 62
     7
 10
667.4474203392142044
 20
3389.4850197497889894
 30
0.0
 11
667.4474203392142044
 21
2206.4850197497889894
 31
0.0
  0
LINE
  5
5D6E
  8
0
  6
PHANTOM2
 62
     7
 10
3414.5774335669611901
 20
3258.9696532723301061
 30
0.0
 11
2232.5774335669611901
 21
3258.9696532723301061
 31
0.0
  0
TEXT
  5
5D6F
  8
0
 62
     7
 10
2463.7936053637108671
 20
3174.4751029972599099
 30
0.0
 40
40.0
  1
2000 min CLEARANCE
  7
TITLE3
  0
LINE
  5
5D72
  8
0
  6
PHANTOM2
 62
     7
 10
3414.5774335669611901
 20
1590.7677040709950234
 30
0.0
 11
3414.5774335669611901
 21
3258.9696532723301061
 31
0.0
  0
LINE
  5
5D73
  8
0
  6
PHANTOM2
 62
     7
 10
2232.5774335669611901
 20
1590.7677040709950234
 30
0.0
 11
2232.5774335669611901
 21
3258.9696532723301061
 31
0.0
  0
LINE
  5
5D74
  8
0
 62
     7
 10
1643.0287004891320066
 20
1126.1807630443061043
 30
0.0
 11
1698.5287004891320066
 21
1126.1807630443061043
 31
0.0
  0
LINE
  5
5D75
  8
0
 62
     7
 10
1643.0287004891320066
 20
1096.7807630443051039
 30
0.0
 11
1698.5287004891320066
 21
1096.7807630443051039
 31
0.0
  0
LINE
  5
5D76
  8
0
 62
     7
 10
1643.0287004891320066
 20
1126.1807630443061043
 30
0.0
 11
1643.0287004891320066
 21
1096.7807630443051039
 31
0.0
  0
LINE
  5
5D77
  8
0
 62
     7
 10
1698.5287004891320066
 20
1072.1807630443061043
 30
0.0
 11
1737.828700489133098
 21
1111.4807630443040125
 31
0.0
  0
LINE
  5
5D78
  8
0
 62
     7
 10
1698.5287004891320066
 20
1126.1807630443061043
 30
0.0
 11
1698.5287004891320066
 21
1150.7807630443051039
 31
0.0
  0
LINE
  5
5D79
  8
0
 62
     7
 10
1698.5287004891320066
 20
1150.7807630443051039
 30
0.0
 11
1737.828700489133098
 21
1111.4807630443040125
 31
0.0
  0
LINE
  5
5D7A
  8
0
 62
     7
 10
1698.5287004891320066
 20
1096.7807630443051039
 30
0.0
 11
1698.5287004891320066
 21
1072.1807630443061043
 31
0.0
  0
LINE
  5
5D7B
  8
0
 62
     7
 10
1682.3287004891310517
 20
591.6592751048024184
 30
0.0
 11
1643.0287004891320066
 21
630.9592751048023729
 31
0.0
  0
LINE
  5
5D7C
  8
0
 62
     7
 10
1682.3287004891310517
 20
616.2592751048019863
 30
0.0
 11
1682.3287004891310517
 21
591.6592751048024184
 31
0.0
  0
LINE
  5
5D7D
  8
0
 62
     7
 10
1737.828700489133098
 20
645.6592751048017362
 30
0.0
 11
1682.3287004891310517
 21
645.6592751048017362
 31
0.0
  0
LINE
  5
5D7E
  8
0
 62
     7
 10
1737.828700489133098
 20
616.2592751048019863
 30
0.0
 11
1682.3287004891310517
 21
616.2592751048019863
 31
0.0
  0
LINE
  5
5D7F
  8
0
 62
     7
 10
1737.828700489133098
 20
616.2592751048019863
 30
0.0
 11
1737.828700489133098
 21
645.6592751048017362
 31
0.0
  0
LINE
  5
5D80
  8
0
 62
     7
 10
1682.3287004891310517
 20
645.6592751048017362
 30
0.0
 11
1682.3287004891310517
 21
670.2592751048016453
 31
0.0
  0
LINE
  5
5D81
  8
0
 62
     7
 10
1682.3287004891310517
 20
670.2592751048016453
 30
0.0
 11
1643.0287004891320066
 21
630.9592751048023729
 31
0.0
  0
TEXT
  5
5F1D
  8
0
 62
     7
 10
4651.679314330384841
 20
590.0488749789451504
 30
0.0
 40
24.0
  1
available on request
  7
TITLE3
  0
TEXT
  5
5F1E
  8
0
 62
     7
 10
4651.679314330384841
 20
631.1917321218022607
 30
0.0
 40
24.0
  1
Certified dimensions
  7
TITLE3
  0
TEXT
  5
5F1F
  8
0
 62
     7
 10
4651.679314330384841
 20
672.3345892646593711
 30
0.0
 40
24.0
  1
without notice or obligation.
  7
TITLE3
  0
TEXT
  5
5F20
  8
0
 62
     7
 10
4651.679314330384841
 20
713.4774464075164815
 30
0.0
 40
24.0
  1
specifications at any time
  7
TITLE3
  0
TEXT
  5
5F21
  8
0
 62
     7
 10
4651.679314330384841
 20
754.6203035503737055
 30
0.0
 40
24.0
  1
the right to change 
  7
TITLE3
  0
TEXT
  5
5F22
  8
0
 62
     7
 10
4651.679314330384841
 20
836.9060178360879263
 30
0.0
 40
24.0
  1
NOTE
  7
TITLE3
  0
TEXT
  5
5F23
  8
0
 62
     7
 10
4651.679314330384841
 20
795.7631606932307022
 30
0.0
 40
24.0
  1
The manufacturer reserves
  7
TITLE3
  0
LINE
  5
5F74
  8
0
 62
     7
 10
793.4512223408037244
 20
2198.4850197497889894
 30
0.0
 11
912.4512223408038381
 21
2198.4850197497889894
 31
0.0
  0
LINE
  5
5F76
  8
0
 62
     7
 10
793.4512223408037244
 20
3396.4850197497889894
 30
0.0
 11
793.4512223408037244
 21
3389.4850197497889894
 31
0.0
  0
LINE
  5
5F77
  8
0
 62
     7
 10
912.4512223408038381
 20
3396.4850197497889894
 30
0.0
 11
912.4512223408038381
 21
3389.4850197497889894
 31
0.0
  0
LINE
  5
5F79
  8
0
 62
     7
 10
1518.4512223408039517
 20
3397.4850197497898989
 30
0.0
 11
1518.4512223408039517
 21
3389.4850197497921727
 31
0.0
  0
LINE
  5
5F7A
  8
0
 62
     7
 10
1637.4512223408030422
 20
3397.4850197497898989
 30
0.0
 11
1637.4512223408030422
 21
3389.4850197497921727
 31
0.0
  0
LINE
  5
5F7B
  8
0
 62
     7
 10
1518.4512223408039517
 20
2197.4850197497889894
 30
0.0
 11
1637.4512223408030422
 21
2197.4850197497889894
 31
0.0
  0
LINE
  5
5F7C
  8
0
 62
     7
 10
793.4512223408037244
 20
3396.4850197497889894
 30
0.0
 11
912.4512223408038381
 21
3396.4850197497889894
 31
0.0
  0
LINE
  5
5F7D
  8
0
 62
     7
 10
1518.4512223408039517
 20
3397.4850197497898989
 30
0.0
 11
1637.4512223408030422
 21
3397.4850197497898989
 31
0.0
  0
LINE
  5
5F7E
  8
0
 62
     7
 10
1637.4512223408030422
 20
2206.4850197497898989
 30
0.0
 11
1637.4512223408030422
 21
2197.4850197497889894
 31
0.0
  0
LINE
  5
5F7F
  8
0
 62
     7
 10
1518.4512223408039517
 20
2206.4850197497898989
 30
0.0
 11
1518.4512223408039517
 21
2197.4850197497889894
 31
0.0
  0
LINE
  5
5F80
  8
0
 62
     7
 10
912.4512223408038381
 20
2206.4850197497889894
 30
0.0
 11
912.4512223408038381
 21
2198.4850197497889894
 31
0.0
  0
LINE
  5
5F81
  8
0
 62
     7
 10
793.451222340801678
 20
2206.4850197497898989
 30
0.0
 11
793.4512223408037244
 21
2198.4850197497889894
 31
0.0
  0
LINE
  5
5F95
  8
0
  6
PHANTOM2
 62
     7
 10
667.4474203392142044
 20
2160.7640624368132194
 30
0.0
 11
667.4474203392142044
 21
1706.4850197497889894
 31
0.0
  0
LINE
  5
5FE6
  8
0
 62
     7
 10
2232.5774335669611901
 20
1264.3667511965850281
 30
0.0
 11
2232.5774335669611901
 21
329.9667511965841982
 31
0.0
  0
LINE
  5
5FE7
  8
0
 62
     7
 10
3414.5774335669611901
 20
1258.9696532723289693
 30
0.0
 11
3414.5774335669611901
 21
329.9667511965836866
 31
0.0
  0
LINE
  5
5FE8
  8
0
 62
     7
 10
2222.5774335669611901
 20
329.9667511965836866
 30
0.0
 11
3422.5774335669589163
 21
329.9667511965836866
 31
0.0
  0
LINE
  5
5FE9
  8
0
 62
     7
 10
2222.5774335669611901
 20
329.9667511965836866
 30
0.0
 11
2222.5774335669611901
 21
294.9667511965823792
 31
0.0
  0
LINE
  5
5FEA
  8
0
 62
     7
 10
3422.5774335669589163
 20
329.9667511965836866
 30
0.0
 11
3422.5774335669589163
 21
294.9667511965823792
 31
0.0
  0
LINE
  5
5FEB
  8
0
 62
     7
 10
2222.5774335669611901
 20
294.9667511965823792
 30
0.0
 11
3422.5774335669589163
 21
294.9667511965827202
 31
0.0
  0
LINE
  5
5FEC
  8
0
 62
     7
 10
2243.5774335669620996
 20
304.9667511965823792
 30
0.0
 11
2243.5774335669620996
 21
284.9667511965827202
 31
0.0
  0
LINE
  5
6185
  8
0
  6
HIDDEN2
 62
     7
 10
743.2559853856695327
 20
3089.6239613861780526
 30
0.0
 11
743.2559853856695327
 21
2312.2433723078402181
 31
0.0
  0
LINE
  5
6186
  8
0
  6
HIDDEN2
 62
     7
 10
688.2559853856696463
 20
3089.6239613861780526
 30
0.0
 11
688.2559853856696463
 21
2312.2433723078402181
 31
0.0
  0
ARC
  5
6187
  8
0
  6
HIDDEN2
 62
     7
 10
943.2559853856686232
 20
3089.6239613861771431
 30
0.0
 40
255.0
 50
90.0
 51
180.0
  0
ARC
  5
6188
  8
0
  6
HIDDEN2
 62
     7
 10
943.2559853856686232
 20
3089.6239613861771431
 30
0.0
 40
200.0
 50
90.0
 51
180.0
  0
LINE
  5
6189
  8
0
  6
HIDDEN2
 62
     7
 10
1253.2559853856680547
 20
3289.6239613861771431
 30
0.0
 11
943.2559853856703285
 21
3289.6239613861771431
 31
0.0
  0
LINE
  5
618A
  8
0
  6
HIDDEN2
 62
     7
 10
943.2559853856703285
 20
3344.6239613861789621
 30
0.0
 11
1254.4559853856690097
 21
3344.6239613861789621
 31
0.0
  0
LINE
  5
618B
  8
0
  6
HIDDEN2
 62
     7
 10
1254.4559853856681002
 20
3289.6239613861771431
 30
0.0
 11
1254.4559853856690097
 21
3344.6239613861789621
 31
0.0
  0
LINE
  5
618C
  8
0
  6
HIDDEN
 62
     7
 10
1254.4559853856681002
 20
3289.6239613861771431
 30
0.0
 11
1253.2559853856680547
 21
3289.6239613861771431
 31
0.0
  0
LINE
  5
618D
  8
0
  6
HIDDEN
 62
     7
 10
743.2559853856695327
 20
2312.2433723078402181
 30
0.0
 11
688.2559853856696463
 21
2312.2433723078402181
 31
0.0
  0
LINE
  5
6409
  8
0
 62
     7
 10
2223.5774335669620996
 20
356.6334178632505996
 30
0.0
 11
2223.5774335669620996
 21
398.0819839208247117
 31
0.0
  0
LINE
  5
640A
  8
0
 62
     7
 10
2232.5774335669611901
 20
356.6334178632505996
 30
0.0
 11
2232.5774335669611901
 21
398.0819839208247117
 31
0.0
  0
LINE
  5
640B
  8
0
 62
     7
 10
2183.5774335669620996
 20
371.4153172541577987
 30
0.0
 11
2143.5774335669611901
 21
371.4153172541577987
 31
0.0
  0
LINE
  5
640C
  8
0
 62
     7
 10
2272.5774335669611901
 20
371.4153172541577987
 30
0.0
 11
2312.5774335669611901
 21
371.4153172541577987
 31
0.0
  0
SOLID
  5
640D
  8
0
 62
     7
 10
2183.5774335669620996
 20
378.0819839208247117
 30
0.0
 11
2183.5774335669620996
 21
364.7486505874907721
 31
0.0
 12
2223.5774335669620996
 22
371.4153172541577987
 32
0.0
 13
2223.5774335669620996
 23
371.4153172541577987
 33
0.0
  0
SOLID
  5
640E
  8
0
 62
     7
 10
2272.5774335669611901
 20
378.0819839208247117
 30
0.0
 11
2272.5774335669611901
 21
364.7486505874907721
 31
0.0
 12
2232.5774335669611901
 22
371.4153172541577987
 32
0.0
 13
2232.5774335669611901
 23
371.4153172541577987
 33
0.0
  0
TEXT
  5
6460
  8
0
 62
     7
 10
2101.0643770123801914
 20
356.4153172541577987
 30
0.0
 40
30.0
  1
10
  0
LINE
  5
64A9
  8
0
 62
     7
 10
3414.5774335669611901
 20
1264.3667511965850281
 30
0.0
 11
3414.5774335669611901
 21
329.9667511965836866
 31
0.0
  0
LINE
  5
64AA
  8
0
 62
     7
 10
2327.5774335669611901
 20
835.9667511965834592
 30
0.0
 11
2327.5774335669611901
 21
397.0684654272151874
 31
0.0
  0
LINE
  5
64AC
  8
0
 62
     7
 10
2276.0774335669689208
 20
1233.3667511965838912
 30
0.0
 11
2276.0774335669689208
 21
1038.3667511965838912
 31
0.0
  0
LINE
  5
64AE
  8
0
 62
     7
 10
3371.0774335669698303
 20
1233.3667511965859376
 30
0.0
 11
3371.0774335669698303
 21
1038.3667511965829817
 31
0.0
  0
LINE
  5
64AF
  8
0
 62
     7
 10
3359.5774335669611901
 20
835.9667511965834592
 30
0.0
 11
3359.5774335669648281
 21
397.0684654272151874
 31
0.0
  0
LINE
  5
64B8
  8
0
  6
ACANSTGL
 62
     7
 10
1767.4512223408039517
 20
2301.4850197497889894
 30
0.0
 11
1826.4474203392139771
 21
2301.4850197497889894
 31
0.0
  0
LINE
  5
64B9
  8
0
 62
     7
 10
1767.4512223408039517
 20
3345.9850197498008129
 30
0.0
 11
1826.4474203392139771
 21
3345.9850197498008129
 31
0.0
  0
LINE
  5
64BB
  8
0
  6
ACANSTGL
 62
     7
 10
1767.4512223408039517
 20
3334.4850197497921727
 30
0.0
 11
1826.4474203392139771
 21
3334.4850197497921727
 31
0.0
  0
LINE
  5
6CC4
  8
0
 62
     7
 10
1767.4474203392148866
 20
396.966751196583516
 30
0.0
 11
1826.4474203392139771
 21
396.966751196583516
 31
0.0
  0
LINE
  5
6CC7
  8
0
 62
     7
 10
1767.4474203392139771
 20
835.9667511965834592
 30
0.0
 11
1826.4474203392139771
 21
835.9667511965834592
 31
0.0
  0
LINE
  5
6CC8
  8
0
 62
     7
 10
1767.4474203392139771
 20
1038.3667511965838912
 30
0.0
 11
1826.4474203392139771
 21
1038.3667511965838912
 31
0.0
  0
LINE
  5
6CCB
  8
0
 62
     7
 10
2276.0774335669689208
 20
1038.3667511965838912
 30
0.0
 11
3371.0774335669698303
 21
1038.3667511965829817
 31
0.0
  0
LINE
  5
6CCD
  8
0
 62
     7
 10
2327.5774335669611901
 20
397.0684654272151874
 30
0.0
 11
3359.5774335669648281
 21
397.0684654272151874
 31
0.0
  0
TEXT
  5
6CF7
  8
0
 62
     7
 10
829.5031963381879905
 20
2929.8850197497931731
 30
0.0
 40
62.9999999984249968
  1
186RKTYH
  7
TITLE5
 72
     1
 11
1054.5031963325629931
 21
2929.8850197497931731
 31
0.0
  0
LINE
  5
6E85
  8
0
 62
     7
 10
915.5814395182821954
 20
1365.9667511965828908
 30
0.0
 11
348.1580472470740801
 21
1365.9667511965828908
 31
0.0
  0
LINE
  5
6E86
  8
0
 62
     7
 10
766.7845556741367545
 20
294.9667511965810149
 30
0.0
 11
384.6069436483667232
 21
294.9667511965810149
 31
0.0
  0
LINE
  5
6E87
  8
0
 62
     7
 10
394.4584356277088091
 20
1325.9667511965828908
 30
0.0
 11
394.4584356277084112
 21
910.9672134996284285
 31
0.0
  0
LINE
  5
6E88
  8
0
 62
     7
 10
394.4584356277085817
 20
334.9667511965810149
 30
0.0
 11
394.4584356277085817
 21
658.8015355677863454
 31
0.0
  0
SOLID
  5
6E89
  8
0
 62
     7
 10
387.7917689610421235
 20
1325.9667511965828908
 30
0.0
 11
401.1251022943753242
 21
1325.9667511965828908
 31
0.0
 12
394.4584356277088091
 22
1365.9667511965828908
 32
0.0
 13
394.4584356277088091
 23
1365.9667511965828908
 33
0.0
  0
SOLID
  5
6E8A
  8
0
 62
     7
 10
387.7917689610417824
 20
334.9667511965810149
 30
0.0
 11
401.1251022943753242
 21
334.9667511965809013
 31
0.0
 12
394.4584356277085817
 22
294.9667511965810149
 32
0.0
 13
394.4584356277085817
 23
294.9667511965810149
 33
0.0
  0
LINE
  5
6E8C
  8
0
 62
     7
 10
854.4474203392140907
 20
261.3000845299172852
 30
0.0
 11
854.4474203392140907
 21
213.7915834960695918
 31
0.0
  0
LINE
  5
6E8D
  8
0
 62
     7
 10
667.4474203392142044
 20
303.3000845299171147
 30
0.0
 11
667.4474203392142044
 21
213.7915834960695918
 31
0.0
  0
LINE
  5
6E8E
  8
0
 62
     7
 10
894.4474203392140907
 20
240.4582501627363058
 30
0.0
 11
934.4474203392139771
 21
240.4582501627363058
 31
0.0
  0
LINE
  5
6E8F
  8
0
 62
     7
 10
627.4474203392140907
 20
240.4582501627363058
 30
0.0
 11
587.4474203392138634
 21
240.4582501627363058
 31
0.0
  0
SOLID
  5
6E90
  8
0
 62
     7
 10
894.4474203392140907
 20
247.1249168294029062
 30
0.0
 11
894.4474203392140907
 21
233.7915834960695918
 31
0.0
 12
854.4474203392140907
 22
240.4582501627363058
 32
0.0
 13
854.4474203392140907
 23
240.4582501627363058
 33
0.0
  0
SOLID
  5
6E91
  8
0
 62
     7
 10
627.4474203392140907
 20
247.1249168294029062
 30
0.0
 11
627.4474203392140907
 21
233.7915834960695918
 31
0.0
 12
667.4474203392142044
 22
240.4582501627363058
 32
0.0
 13
667.4474203392142044
 23
240.4582501627363058
 33
0.0
  0
LINE
  5
6E93
  8
0
 62
     7
 10
854.4474203392140907
 20
261.3000845299172852
 30
0.0
 11
854.4474203392140907
 21
213.7915834960695918
 31
0.0
  0
LINE
  5
6E94
  8
0
 62
     7
 10
1582.4474203392139771
 20
261.3912975142949904
 30
0.0
 11
1582.4474203392139771
 21
213.8827964804474107
 31
0.0
  0
LINE
  5
6E95
  8
0
 62
     7
 10
894.4474203392140907
 20
240.4582501627363058
 30
0.0
 11
1075.2807536725460977
 21
240.4582501627363058
 31
0.0
  0
LINE
  5
6E96
  8
0
 62
     7
 10
1542.4474203392139771
 20
240.5494631471140963
 30
0.0
 11
1361.6140870058809469
 21
240.5494631471140963
 31
0.0
  0
SOLID
  5
6E97
  8
0
 62
     7
 10
894.4474203392140907
 20
247.1249168294029062
 30
0.0
 11
894.4474203392140907
 21
233.7915834960695918
 31
0.0
 12
854.4474203392140907
 22
240.4582501627363058
 32
0.0
 13
854.4474203392140907
 23
240.4582501627363058
 33
0.0
  0
SOLID
  5
6E98
  8
0
 62
     7
 10
1542.4474203392139771
 20
247.2161298137806966
 30
0.0
 11
1542.4474203392139771
 21
233.882796480447297
 31
0.0
 12
1582.4474203392139771
 22
240.5494631471140963
 32
0.0
 13
1582.4474203392139771
 23
240.5494631471140963
 33
0.0
  0
LINE
  5
6E9A
  8
0
 62
     7
 10
667.4474203392142044
 20
1285.6205027132129999
 30
0.0
 11
667.4474203392142044
 21
1519.2329020530580692
 31
0.0
  0
LINE
  5
6E9B
  8
0
 62
     7
 10
1826.4474203392139771
 20
1256.7607581771198966
 30
0.0
 11
1826.4474203392139771
 21
1519.1986200684450523
 31
0.0
  0
LINE
  5
6E9C
  8
0
 62
     7
 10
707.4474203392138634
 20
1492.5662353863910994
 30
0.0
 11
1116.7824165299789456
 21
1492.5662353863910994
 31
0.0
  0
LINE
  5
6E9D
  8
0
 62
     7
 10
1786.4474203392148866
 20
1492.5319534017780825
 30
0.0
 11
1377.1124241484490085
 21
1492.5319534017780825
 31
0.0
  0
SOLID
  5
6E9E
  8
0
 62
     7
 10
707.4474203392138634
 20
1499.2329020530580692
 30
0.0
 11
707.4474203392138634
 21
1485.8995687197239022
 31
0.0
 12
667.4474203392142044
 22
1492.5662353863910994
 32
0.0
 13
667.4474203392142044
 23
1492.5662353863910994
 33
0.0
  0
SOLID
  5
6E9F
  8
0
 62
     7
 10
1786.4474203392148866
 20
1499.1986200684450523
 30
0.0
 11
1786.4474203392148866
 21
1485.8652867351111126
 31
0.0
 12
1826.4474203392139771
 22
1492.5319534017780825
 32
0.0
 13
1826.4474203392139771
 23
1492.5319534017780825
 33
0.0
  0
LINE
  5
6EA1
  8
0
 62
     7
 10
1767.4474203392139771
 20
1285.6363199389950296
 30
0.0
 11
1767.4474203392139771
 21
1447.6474914563330003
 31
0.0
  0
LINE
  5
6EA2
  8
0
 62
     7
 10
667.4474203392142044
 20
1285.6205027132129999
 30
0.0
 11
667.4474203392142044
 21
1447.6316742305521075
 31
0.0
  0
LINE
  5
6EA3
  8
0
 62
     7
 10
1727.4474203392130676
 20
1420.98082478966694
 30
0.0
 11
1284.6159880066750247
 21
1420.98082478966694
 31
0.0
  0
LINE
  5
6EA4
  8
0
 62
     7
 10
707.4474203392138634
 20
1420.9650075638860471
 30
0.0
 11
1150.2788526717520199
 21
1420.9650075638860471
 31
0.0
  0
SOLID
  5
6EA5
  8
0
 62
     7
 10
1727.4474203392130676
 20
1427.6474914563339098
 30
0.0
 11
1727.4474203392130676
 21
1414.3141581229999701
 31
0.0
 12
1767.4474203392139771
 22
1420.98082478966694
 32
0.0
 13
1767.4474203392139771
 23
1420.98082478966694
 33
0.0
  0
SOLID
  5
6EA6
  8
0
 62
     7
 10
707.4474203392138634
 20
1427.631674230553017
 30
0.0
 11
707.4474203392138634
 21
1414.2983408972190773
 31
0.0
 12
667.4474203392142044
 22
1420.9650075638860471
 32
0.0
 13
667.4474203392142044
 23
1420.9650075638860471
 33
0.0
  0
LINE
  5
6EA8
  8
0
 62
     7
 10
1852.0540870058830478
 20
396.966751196583516
 30
0.0
 11
1937.8128214918949652
 21
396.966751196583516
 31
0.0
  0
LINE
  5
6EA9
  8
0
 62
     7
 10
1793.8154649836360477
 20
329.966751196583516
 30
0.0
 11
1959.5660809720070574
 21
329.9667511965835729
 31
0.0
  0
LINE
  5
6EAA
  8
0
 62
     7
 10
1911.1461548252279954
 20
436.9667511965835729
 30
0.0
 11
1911.1461548252279954
 21
476.9667511965834024
 31
0.0
  0
LINE
  5
6EAB
  8
0
 62
     7
 10
1911.1851183102210143
 20
289.9667511965835729
 30
0.0
 11
1911.1851183102210143
 21
249.9667511965836013
 31
0.0
  0
SOLID
  5
6EAC
  8
0
 62
     7
 10
1904.4794881585619351
 20
436.9667511965835729
 30
0.0
 11
1917.8128214918949652
 21
436.9667511965835729
 31
0.0
 12
1911.1461548252279954
 22
396.966751196583516
 32
0.0
 13
1911.1461548252279954
 23
396.966751196583516
 33
0.0
  0
SOLID
  5
6EAD
  8
0
 62
     7
 10
1904.518451643554954
 20
289.9667511965835729
 30
0.0
 11
1917.8517849768879842
 21
289.9667511965835729
 31
0.0
 12
1911.1851183102210143
 22
329.9667511965835729
 32
0.0
 13
1911.1851183102210143
 23
329.9667511965835729
 33
0.0
  0
LINE
  5
6EAF
  8
0
 62
     7
 10
1852.0700502979600515
 20
835.9667511965834592
 30
0.0
 11
1937.8677482689670342
 21
835.9667511965834592
 31
0.0
  0
LINE
  5
6EB0
  8
0
 62
     7
 10
1852.0540870058830478
 20
396.966751196583516
 30
0.0
 11
1937.8517849768879842
 21
396.966751196583516
 31
0.0
  0
LINE
  5
6EB1
  8
0
 62
     7
 10
1911.1851183102210143
 20
795.9667511965834592
 30
0.0
 11
1911.1851183102210143
 21
682.1806732582371069
 31
0.0
  0
LINE
  5
6EB2
  8
0
 62
     7
 10
1911.1851183102210143
 20
436.9667511965835729
 30
0.0
 11
1911.1851183102210143
 21
554.0734475308410083
 31
0.0
  0
SOLID
  5
6EB3
  8
0
 62
     7
 10
1904.518451643554954
 20
795.9667511965834592
 30
0.0
 11
1917.8517849768888937
 21
795.9667511965834592
 31
0.0
 12
1911.1851183102210143
 22
835.9667511965834592
 32
0.0
 13
1911.1851183102210143
 23
835.9667511965834592
 33
0.0
  0
SOLID
  5
6EB4
  8
0
 62
     7
 10
1904.518451643554954
 20
436.9667511965835729
 30
0.0
 11
1917.8517849768888937
 21
436.9667511965835729
 31
0.0
 12
1911.1851183102210143
 22
396.966751196583516
 32
0.0
 13
1911.1851183102210143
 23
396.966751196583516
 33
0.0
  0
LINE
  5
6EB6
  8
0
 62
     7
 10
1852.1212100132470368
 20
1038.3667512249201081
 30
0.0
 11
1937.8585668793969035
 21
1038.3667512249201081
 31
0.0
  0
LINE
  5
6EB7
  8
0
 62
     7
 10
1852.1212147223370721
 20
1233.3667511965838912
 30
0.0
 11
1937.8585715884869387
 21
1233.3667511965838912
 31
0.0
  0
LINE
  5
6EB8
  8
0
 62
     7
 10
1911.19190021273198
 20
1078.3667512249201081
 30
0.0
 11
1911.19190021273198
 21
1092.7902063458370776
 31
0.0
  0
SOLID
  5
6EBA
  8
0
 62
     7
 10
1904.5252335460650102
 20
1078.3667512249201081
 30
0.0
 11
1917.8585668793980403
 21
1078.3667512249201081
 31
0.0
 12
1911.19190021273198
 22
1038.3667512249201081
 32
0.0
 13
1911.19190021273198
 23
1038.3667512249201081
 33
0.0
  0
SOLID
  5
6EBB
  8
0
 62
     7
 10
1904.5252382551550454
 20
998.3667512249203355
 30
0.0
 11
1917.8585715884880756
 21
998.3667512249203355
 31
0.0
 12
1911.1919049218220152
 22
1038.3667512249201081
 32
0.0
 13
1911.1919049218220152
 23
1038.3667512249201081
 33
0.0
  0
LINE
  5
6F33
  8
0
 62
     7
 10
2243.5774335669620996
 20
261.3000845299172852
 30
0.0
 11
2243.5774335669620996
 21
214.7592050169569973
 31
0.0
  0
LINE
  5
6F34
  8
0
 62
     7
 10
2222.5774335669611901
 20
271.3000845299168873
 30
0.0
 11
2222.5774335669611901
 21
214.7592050169569973
 31
0.0
  0
LINE
  5
6F35
  8
0
 62
     7
 10
2283.5774335669611901
 20
241.4258716836235976
 30
0.0
 11
2323.5774335669620996
 21
241.4258716836235976
 31
0.0
  0
LINE
  5
6F36
  8
0
 62
     7
 10
2182.5774335669620996
 20
241.4258716836235976
 30
0.0
 11
2142.5774335669611901
 21
241.4258716836235976
 31
0.0
  0
SOLID
  5
6F37
  8
0
 62
     7
 10
2283.5774335669611901
 20
248.0925383502903117
 30
0.0
 11
2283.5774335669611901
 21
234.7592050169569973
 31
0.0
 12
2243.5774335669620996
 22
241.4258716836235976
 32
0.0
 13
2243.5774335669620996
 23
241.4258716836235976
 33
0.0
  0
SOLID
  5
6F38
  8
0
 62
     7
 10
2182.5774335669620996
 20
248.0925383502903117
 30
0.0
 11
2182.5774335669620996
 21
234.7592050169569973
 31
0.0
 12
2222.5774335669611901
 22
241.4258716836235976
 32
0.0
 13
2222.5774335669611901
 23
241.4258716836235976
 33
0.0
  0
LINE
  5
6F3A
  8
0
 62
     7
 10
2243.5774335669620996
 20
261.3000845299172852
 30
0.0
 11
2243.5774335669620996
 21
215.0111502919762927
 31
0.0
  0
LINE
  5
6F3B
  8
0
 62
     7
 10
3397.5774335669611901
 20
261.3000845299172852
 30
0.0
 11
3397.5774335669611901
 21
215.0111502919762927
 31
0.0
  0
LINE
  5
6F3C
  8
0
 62
     7
 10
2270.5774335669611901
 20
241.6778169586430067
 30
0.0
 11
2676.4107669002942202
 21
241.6778169586430067
 31
0.0
  0
LINE
  5
6F3D
  8
0
 62
     7
 10
3375.5774335669620996
 20
241.6778169586430067
 30
0.0
 11
2969.7441002336281599
 21
241.6778169586430067
 31
0.0
  0
SOLID
  5
6F3E
  8
0
 62
     7
 10
2283.5774335669611901
 20
248.3444836253096071
 30
0.0
 11
2283.5774335669611901
 21
235.0111502919762927
 31
0.0
 12
2243.5774335669620996
 22
241.6778169586430067
 32
0.0
 13
2243.5774335669620996
 23
241.6778169586430067
 33
0.0
  0
SOLID
  5
6F3F
  8
0
 62
     7
 10
3357.5774335669611901
 20
248.3444836253096071
 30
0.0
 11
3357.5774335669611901
 21
235.0111502919762927
 31
0.0
 12
3397.5774335669611901
 22
241.6778169586430067
 32
0.0
 13
3397.5774335669611901
 23
241.6778169586430067
 33
0.0
  0
LINE
  5
6F41
  8
0
 62
     7
 10
3422.5774335669589163
 20
271.3000845299172852
 30
0.0
 11
3422.5774335669589163
 21
151.5543388433862049
 31
0.0
  0
LINE
  5
6F42
  8
0
 62
     7
 10
2222.5774335669611901
 20
271.3000845299168873
 30
0.0
 11
2222.5774335669611901
 21
151.5543388433862049
 31
0.0
  0
LINE
  5
6F43
  8
0
 62
     7
 10
3382.5774335669611901
 20
178.2210055100528052
 30
0.0
 11
2954.2441002336281599
 21
178.2210055100528052
 31
0.0
  0
LINE
  5
6F44
  8
0
 62
     7
 10
2262.5774335669611901
 20
178.2210055100528052
 30
0.0
 11
2690.9107669002942202
 21
178.2210055100528052
 31
0.0
  0
SOLID
  5
6F45
  8
0
 62
     7
 10
3382.5774335669611901
 20
184.8876721767194056
 30
0.0
 11
3382.5774335669611901
 21
171.5543388433862049
 31
0.0
 12
3422.5774335669589163
 22
178.2210055100528052
 32
0.0
 13
3422.5774335669589163
 23
178.2210055100528052
 33
0.0
  0
SOLID
  5
6F46
  8
0
 62
     7
 10
2262.5774335669611901
 20
184.8876721767194056
 30
0.0
 11
2262.5774335669611901
 21
171.5543388433862049
 31
0.0
 12
2222.5774335669611901
 22
178.2210055100528052
 32
0.0
 13
2222.5774335669611901
 23
178.2210055100528052
 33
0.0
  0
LINE
  5
6F4B
  8
0
 62
     7
 10
2192.5774335669620996
 20
703.7550491377801336
 30
0.0
 11
2152.5774335669611901
 21
703.7550491377801336
 31
0.0
  0
SOLID
  5
6F4D
  8
0
 62
     7
 10
2192.5774335669620996
 20
710.4217158044471034
 30
0.0
 11
2192.5774335669620996
 21
697.0883824711130501
 31
0.0
 12
2232.5774335669611901
 22
703.7550491377801336
 32
0.0
 13
2232.5774335669611901
 23
703.7550491377801336
 33
0.0
  0
LINE
  5
6F56
  8
0
 62
     7
 10
2327.5774335669611901
 20
853.3854918269344125
 30
0.0
 11
2327.5774335669611901
 21
909.4226813104302209
 31
0.0
  0
LINE
  5
6F57
  8
0
 62
     7
 10
3359.5774335669648281
 20
849.2268849820549121
 30
0.0
 11
3359.5774335669648281
 21
907.4113906648867669
 31
0.0
  0
LINE
  5
6F58
  8
0
 62
     7
 10
2367.5774335669620996
 20
888.6571507775347527
 30
0.0
 11
2784.4107669002951297
 21
888.6571507775347527
 31
0.0
  0
LINE
  5
6F59
  8
0
 62
     7
 10
3319.5774335669661923
 20
888.6571507775347527
 30
0.0
 11
2932.7441002336290694
 21
888.6571507775347527
 31
0.0
  0
SOLID
  5
6F5A
  8
0
 62
     7
 10
2367.5774335669620996
 20
895.3238174442018362
 30
0.0
 11
2367.5774335669620996
 21
881.9904841108677829
 31
0.0
 12
2327.5774335669611901
 22
888.6571507775347527
 32
0.0
 13
2327.5774335669611901
 23
888.6571507775347527
 33
0.0
  0
SOLID
  5
6F5B
  8
0
 62
     7
 10
3319.5774335669661923
 20
895.3238174442018362
 30
0.0
 11
3319.5774335669661923
 21
881.9904841108677829
 31
0.0
 12
3359.5774335669648281
 22
888.6571507775347527
 32
0.0
 13
3359.5774335669648281
 23
888.6571507775347527
 33
0.0
  0
LINE
  5
6F60
  8
0
 62
     7
 10
2192.5774335669561879
 20
1420.98082478966694
 30
0.0000000188571338
 11
2151.0774182722047954
 21
1420.98082478966694
 31
0.0000000094285669
  0
SOLID
  5
6F61
  8
0
 62
     7
 10
2192.5774335669561879
 20
1427.6474914563339098
 30
0.0000000188571338
 11
2192.5774335669561879
 21
1414.314158123001107
 31
0.0000000188571338
 12
2232.5774335669561879
 22
1420.98082478966694
 32
0.0000000188571338
 13
2232.5774335669561879
 23
1420.98082478966694
 33
0.0000000188571338
  0
LINE
  5
6F64
  8
0
 62
     7
 10
2276.0774297296898112
 20
1246.8086552577410657
 30
-0.0000000188571338
 11
2276.0774297296898112
 21
1429.167969288545919
 31
-0.0000000188571338
  0
LINE
  5
6F65
  8
0
 62
     7
 10
3371.0774292627929754
 20
1252.5600303318099122
 30
0.0000000094285669
 11
3371.0774194166278903
 21
1427.3336122264749974
 31
0.0000000094285669
  0
LINE
  5
6F66
  8
0
 62
     7
 10
2276.077429729684809
 20
1420.98082478966694
 30
0.0
 11
2756.6380172841481908
 21
1420.98082478966694
 31
0.0
  0
LINE
  5
6F67
  8
0
 62
     7
 10
3371.0774182722111618
 20
1420.98082478966694
 30
0.0000000094285669
 11
2887.2440849388781317
 21
1420.98082478966694
 31
0.0000000094285669
  0
SOLID
  5
6F68
  8
0
 62
     7
 10
2316.077429729684809
 20
1427.6474914563350467
 30
0.0
 11
2316.077429729684809
 21
1414.3141581230020165
 31
0.0
 12
2276.077429729684809
 22
1420.98082478966694
 32
0.0
 13
2276.077429729684809
 23
1420.98082478966694
 33
0.0
  0
SOLID
  5
6F69
  8
0
 62
     7
 10
3331.0774182722111618
 20
1427.6474914563350467
 30
0.0000000094285669
 11
3331.0774182722111618
 21
1414.3141581230020165
 31
0.0000000094285669
 12
3371.0774182722111618
 22
1420.98082478966694
 32
0.0000000094285669
 13
3371.0774182722111618
 23
1420.98082478966694
 33
0.0000000094285669
  0
LINE
  5
6F6B
  8
0
 62
     7
 10
2232.5774335669611901
 20
1285.6363199389950296
 30
0.0
 11
2232.5774335669611901
 21
1571.1044754177460163
 31
0.0
  0
LINE
  5
6F6C
  8
0
 62
     7
 10
3414.5774335669611901
 20
1285.6363199389950296
 30
0.0
 11
3414.5774335669611901
 21
1571.1044754177460163
 31
0.0
  0
LINE
  5
6F6D
  8
0
 62
     7
 10
2271.5774335669611901
 20
1492.5319534017780825
 30
0.0
 11
2751.4107669002951297
 21
1492.5319534017780825
 31
0.0
  0
LINE
  5
6F6E
  8
0
 62
     7
 10
3374.5774335669620996
 20
1492.5319534017780825
 30
0.0
 11
2894.7441002336281599
 21
1492.5319534017780825
 31
0.0
  0
SOLID
  5
6F6F
  8
0
 62
     7
 10
2272.5774335669611901
 20
1499.1986200684450523
 30
0.0
 11
2272.5774335669611901
 21
1485.8652867351111126
 31
0.0
 12
2232.5774335669611901
 22
1492.5319534017780825
 32
0.0
 13
2232.5774335669611901
 23
1492.5319534017780825
 33
0.0
  0
SOLID
  5
6F70
  8
0
 62
     7
 10
3374.5774335669620996
 20
1499.1986200684450523
 30
0.0
 11
3374.5774335669620996
 21
1485.8652867351111126
 31
0.0
 12
3414.5774335669611901
 22
1492.5319534017780825
 32
0.0
 13
3414.5774335669611901
 23
1492.5319534017780825
 33
0.0
  0
TEXT
  5
6FC6
  8
0
 62
     7
 10
2778.0774335669620996
 20
1477.5319534017780825
 30
0.0
 40
30.0
  1
1182
  0
TEXT
  5
6FC7
  8
0
 62
     7
 10
2773.9596841890979704
 20
1405.9808247896680768
 30
0.0000000094285669
 40
30.0
  1
1095
  0
TEXT
  5
6FC8
  8
0
 62
     7
 10
2088.438205258490143
 20
1405.98082478966694
 30
0.0000000094285669
 40
30.0
  1
44
  0
TEXT
  5
6FC9
  8
0
 62
     7
 10
2811.0774335669620996
 20
873.6571507775347527
 30
0.0
 40
30.0
  1
1032
  0
TEXT
  5
6FCA
  8
0
 62
     7
 10
2086.7201782088268374
 20
688.7550491377801336
 30
0.0
 40
30.0
  1
95
  0
TEXT
  5
6FCB
  8
0
 62
     7
 10
2717.5774335669611901
 20
163.2210055100528905
 30
0.0
 40
30.0
  1
1198 O/A
  0
TEXT
  5
6FCC
  8
0
 62
     7
 10
2703.0774335669611901
 20
226.6778169586430067
 30
0.0
 40
30.0
  1
1158 CTRS
  0
TEXT
  5
6FCD
  8
0
 62
     7
 10
2088.9901257020537741
 20
226.4258716836235976
 30
0.0
 40
30.0
  1
20
  0
TEXT
  5
6FCE
  8
0
 62
     7
 10
1926.1623959917490083
 20
900.1835502545271765
 30
0.0
 40
30.0
  1
203
 50
90.0
  0
TEXT
  5
6FCF
  8
0
 62
     7
 10
1926.1919002127310705
 20
1099.1063186248650254
 30
0.0
 40
30.0
  1
195
 50
90.0
  0
TEXT
  5
6FD0
  8
0
 62
     7
 10
1926.1851183102210143
 20
577.9038072575712022
 30
0.0
 40
30.0
  1
439
 50
90.0
  0
TEXT
  5
6FD1
  8
0
 62
     7
 10
1926.1461548252289049
 20
189.7425545760252135
 30
0.0
 40
30.0
  1
67
 50
90.0
  0
TEXT
  5
6FD2
  8
0
 62
     7
 10
1172.949321340006918
 20
1405.9808247896660305
 30
0.0
 40
30.0
  1
1099
  0
TEXT
  5
6FD3
  8
0
 62
     7
 10
1139.4528851982340711
 20
1477.5820526121719922
 30
0.0
 40
30.0
  1
1159 O/A
  0
TEXT
  5
6FD4
  8
0
 62
     7
 10
1100.4512223408039517
 20
225.4582501627361069
 30
0.0
 40
30.0
  1
727 CTRS
  0
TEXT
  5
6FD5
  8
0
 62
     7
 10
718.0904558212581605
 20
225.4582501627361069
 30
0.0
 40
30.0
  1
187
  0
TEXT
  5
6FD6
  8
0
 62
     7
 10
409.4584356277081838
 20
688.4682022344557026
 30
0.0
 40
30.0
  1
1071 O/A
 50
90.0
  0
LINE
  5
72F0
  8
0
  6
PHANTOM2
 10
667.4474203392142044
 20
3419.3473584867078898
 30
0.0
 11
667.4474203392142044
 21
3889.4886077721148467
 31
0.0
  0
LINE
  5
72F3
  8
0
  6
PHANTOM2
 10
667.4474203392142044
 20
3889.4850197497898989
 30
0.0
 11
1470.2751108345289595
 21
3889.4850197497898989
 31
0.0
  0
TEXT
  5
72F4
  8
0
 10
745.3026410893966158
 20
3826.6138197063901316
 30
0.0
 40
40.0
  1
500 min CLEARANCE
  7
TITLE3
  0
LINE
  5
72F5
  8
0
  6
PHANTOM2
 10
1470.2751108345289595
 20
3419.3473584867078898
 30
0.0
 11
1470.2751108345289595
 21
3889.4850197497898989
 31
0.0
  0
CIRCLE
  5
7990
  8
0
 10
1054.5031963325629931
 20
2929.8850197497931731
 30
0.0
 40
347.2951070159319897
  0
LINE
  5
79AB
  8
0
 62
     7
 10
3402.3028474145180553
 20
304.9667511965824929
 30
0.0
 11
3402.3028474145180553
 21
284.9667511965827771
 31
0.0
  0
LINE
  5
858A
  8
0
 10
4521.6496647619860596
 20
224.3582076113954997
 30
0.0
 11
4521.6496647619860596
 21
27.7899904644228499
 31
0.0
  0
TEXT
  5
8591
  8
0
 62
     7
 10
960.2145946368634668
 20
2842.9067688457957956
 30
0.0
 40
62.9999999984249968
  1
UC7
  7
TITLE5
 72
     1
 11
1045.7145946347259269
 21
2842.9067688457957956
 31
0.0
  0
TEXT
  5
8598
  8
0
 62
     7
 10
2401.607070293248853
 20
600.278256995087645
 30
0.0
 40
62.9999999984249968
  1
OPA186RKTYH UC7
  7
TITLE5
 72
     1
 11
2850.1070702820361475
 21
600.278256995087645
 31
0.0
  0
SOLID
  5
8600
  8
0
 62
     7
 10
2367.5774335669620996
 20
711.9343513648295811
 30
0.0
 11
2367.5774335669620996
 21
698.601018031496892
 31
0.0
 12
2327.5774335669611901
 22
705.267684698162725
 32
0.0
 13
2327.5774335669611901
 23
705.267684698162725
 33
0.0
  0
TEXT
  5
868C
  8
0
 62
     7
 10
1925.8058284054970954
 20
1327.8749631605239756
 30
0.0
 40
30.0
  1
31
 50
90.0
  0
LINE
  5
868D
  8
0
 62
     7
 10
1911.1919049218220152
 20
1304.3667457478259166
 30
0.0
 11
1911.1919049218220152
 21
1325.6159190065341136
 31
0.0
  0
SOLID
  5
868E
  8
0
 62
     7
 10
1904.5252400628251053
 20
1304.3667457478259166
 30
0.0
 11
1917.8585733961579081
 21
1304.3667457478259166
 31
0.0
 12
1911.1919067294909382
 22
1264.3667457478259166
 32
0.0
 13
1911.1919067294909382
 23
1264.3667457478259166
 33
0.0
  0
LINE
  5
869B
  8
0
 62
     7
 10
1794.1140850458330078
 20
1264.3667511965850281
 30
0.0
 11
1939.0428243326250595
 21
1264.3667444516549949
 31
0.0
  0
LINE
  5
E5DA
  8
0
 10
2276.0774335669689208
 20
1233.3667511965838912
 30
0.0
 11
3371.0774335669698303
 21
1233.3667511965838912
 31
0.0
  0
LINE
  5
E608
  8
0
 10
2232.5774335669611901
 20
1264.3667511965850281
 30
0.0
 11
3414.5774335669611901
 21
1264.3667511965850281
 31
0.0
  0
LINE
  5
E679
  8
0
 62
     7
 10
2407.5774238692561084
 20
705.2676887920092668
 30
0.0
 11
2367.577423869255199
 21
705.2676887920092668
 31
0.0
  0
LINE
  5
E69D
  8
0
 10
725.8314681330753046
 20
1332.259802736670963
 30
0.00000001
 11
699.1490106491668257
 21
1264.3667505510140927
 31
0.00000001
  0
LINE
  5
E69E
  8
0
 10
725.8314681330753046
 20
1332.259802736670963
 30
0.00000001
 11
951.4613954020170468
 21
1365.9667511965819813
 31
0.00000000138019
  0
LINE
  5
E69F
  8
0
 10
1383.174924532050909
 20
1332.259802736670963
 30
0.0
 11
1409.8573820159590468
 21
1264.3667505510140927
 31
0.0
  0
LINE
  5
E6A0
  8
0
 10
1383.174924532050909
 20
1332.259802736670963
 30
0.0
 11
1157.5449972631090532
 21
1365.9667511965819813
 31
-0.00000000861981
  0
LINE
  5
E6E0
  8
0
 10
2624.053735672403036
 20
1332.2598065596150718
 30
0.00000001
 11
2597.3712781884951255
 21
1264.3667543739579742
 31
0.00000001
  0
LINE
  5
E6E1
  8
0
 10
2624.053735672403036
 20
1332.2598065596150718
 30
0.00000001
 11
2849.6836373510582234
 21
1365.9667511965819813
 31
0.0000000013801909
  0
LINE
  5
E6E2
  8
0
 10
3281.3971920713788677
 20
1332.2598065596150718
 30
0.0
 11
3308.0796495552867782
 21
1264.3667543739579742
 31
0.0
  0
LINE
  5
E6E3
  8
0
 10
3281.3971920713788677
 20
1332.2598065596150718
 30
0.0
 11
3055.7672903927232255
 21
1365.9667511965819813
 31
-0.0000000086198091
  0
LINE
  5
E6E4
  8
0
 10
2885.8111598024720479
 20
1365.9667588424690621
 30
0.0
 11
3019.6397679413098558
 21
1365.9667588424690621
 31
-0.00000001
  0
LINE
  5
E70D
  8
0
 10
2327.5774335669611901
 20
835.9667511965834592
 30
0.0
 11
3359.5774335669611901
 21
835.9667511965834592
 31
0.0
  0
LINE
  5
E76D
  8
0
 10
1826.4474203392139771
 20
1233.3667511965838912
 30
0.0
 11
1826.4474203392139771
 21
1038.3667511965838912
 31
0.0
  0
LINE
  5
E77E
  8
0
 62
     7
 10
1911.1919049218220152
 20
983.9432961040031387
 30
0.0
 11
1911.1919049218220152
 21
998.3667512249203355
 31
0.0
  0
LINE
  5
E78E
  8
0
 62
     7
 10
1911.365298261199996
 20
874.8856714907044534
 30
0.0
 11
1911.365298261199996
 21
889.3091266116215365
 31
0.0
  0
SOLID
  5
E78F
  8
0
 62
     7
 10
1904.6986315945339356
 20
874.8856714907044534
 30
0.0
 11
1918.0319649278669658
 21
874.8856714907044534
 31
0.0
 12
1911.365298261199996
 22
834.8856714907047945
 32
0.0
 13
1911.365298261199996
 23
834.8856714907047945
 33
0.0
  0
SOLID
  5
E799
  8
0
 62
     7
 10
1904.5584024467800646
 20
1193.3667511965838912
 30
0.0
 11
1917.8917357801130947
 21
1193.3667511965838912
 31
0.0
 12
1911.2250691134470344
 22
1233.3667511965838912
 32
0.0
 13
1911.2250691134470344
 23
1233.3667511965838912
 33
0.0
  0
LINE
  5
E79A
  8
0
 62
     7
 10
1911.2250691134470344
 20
1178.9432960756669218
 30
0.0
 11
1911.2250691134470344
 21
1193.3667511965838912
 31
0.0
  0
LINE
  5
E79E
  8
0
 10
951.4613954020195479
 20
1365.9667511965819813
 30
0.0
 11
1157.5449972631060973
 21
1365.9667511965819813
 31
0.0
  0
LINE
  5
E79F
  8
0
 10
3055.7672903927232255
 20
1365.9667511965819813
 30
0.0
 11
2849.6836373510600424
 21
1365.9667511965819813
 31
0.0
  0
LINE
  5
E7BB
  8
0
 62
     7
 10
1767.4474203392139771
 20
303.3000845299171147
 30
0.0
 11
1767.4474203392139771
 21
213.7915834960695918
 31
0.0
  0
TEXT
  5
E7BE
  8
0
 62
     7
 10
1634.4444481415259816
 20
225.9343393635936081
 30
0.0
 40
30.0
  1
185
  0
LINE
  5
E7BF
  8
0
 62
     7
 10
1807.4474203392139771
 20
240.4582501627363058
 30
0.0
 11
1847.4474203392139771
 21
240.4582501627363058
 31
0.0
  0
SOLID
  5
E7C0
  8
0
 62
     7
 10
1807.4474203392139771
 20
247.1249168294029062
 30
0.0
 11
1807.4474203392139771
 21
233.7915834960695918
 31
0.0
 12
1767.4474203392139771
 22
240.4582501627363058
 32
0.0
 13
1767.4474203392139771
 23
240.4582501627363058
 33
0.0
  0
LINE
  5
E9B1
  8
VISIBLE
 10
917.743109783173054
 20
324.9562489870392028
 30
0.0
 11
905.1509357650292031
 21
309.9494803623441044
 31
0.0
  0
LINE
  5
E9C3
  8
VISIBLE
 10
905.1509357650292031
 20
309.9494803623441044
 30
0.0
 11
893.4931304421495497
 21
296.0562489870396234
 31
0.0
  0
LINE
  5
E9C6
  8
VISIBLE
 10
815.4017102362795413
 20
296.0562489870405898
 30
0.0
 11
803.74390491340057
 21
309.9494803623445023
 31
0.0
  0
LINE
  5
E9CB
  8
VISIBLE
 10
803.74390491340057
 20
309.9494803623445023
 30
0.0
 11
791.151730895256037
 21
324.9562489870409081
 31
0.0
  0
LINE
  5
E9CC
  8
VISIBLE
 10
817.7381457877917228
 20
294.9667511965845961
 30
0.0
 11
891.1566948906364587
 21
294.9667511965835729
 31
0.0
  0
LINE
  5
E9FA
  8
VISIBLE
 10
1645.7431097831740772
 20
324.9562489870393165
 30
0.0
 11
1633.1509357650279526
 21
309.9494803623442749
 31
0.0
  0
LINE
  5
E9FE
  8
VISIBLE
 10
1633.1509357650279526
 20
309.9494803623442749
 30
0.0
 11
1621.493130442149095
 21
296.0562489870396234
 31
0.0
  0
LINE
  5
EA01
  8
VISIBLE
 10
1543.4017102362790865
 20
296.0562489870405898
 30
0.0
 11
1531.7439049134000015
 21
309.949480362344616
 31
0.0
  0
LINE
  5
EA07
  8
VISIBLE
 10
1531.7439049134000015
 20
309.949480362344616
 30
0.0
 11
1519.1517308952559233
 21
324.9562489870409081
 31
0.0
  0
LINE
  5
EA08
  8
VISIBLE
 10
1545.738145787790927
 20
294.9667511965845961
 30
0.0
 11
1619.1566948906358903
 21
294.9667511965835729
 31
0.0
  0
LINE
  5
EA15
  8
VISIBLE
 10
1767.4474203392139771
 20
329.9667511965836866
 30
0.0
 11
667.4474203392142044
 21
329.9667511965836866
 31
0.0
  0
ARC
  5
EA7F
  8
VISIBLE
 10
-915.4066742316607588
 20
326.9167511965832205
 30
0.0
 40
3.0500000000000012
210
0.0
220
0.0
230
-1.0
 50
90.0
 51
219.9999999999722888
  0
ARC
  5
EA80
  8
VISIBLE
 10
-891.1566948906364587
 20
298.0167511965835274
 30
0.0
 40
3.0499999999999989
210
0.0
220
0.0
230
-1.0
 50
219.9999999999782858
 51
238.1892350500525026
  0
ARC
  5
EA82
  8
VISIBLE
 10
817.7381457877917228
 20
298.0167511965844938
 30
0.0
 40
3.0499999999999421
 50
238.1892356432717861
 51
270.0
  0
ARC
  5
EA83
  8
VISIBLE
 10
891.1566948906364587
 20
298.0167511965833
 30
0.0
 40
3.0499999999999332
 50
270.0
 51
301.8107643567282139
  0
ARC
  5
EA87
  8
VISIBLE
 10
-817.7381457877917228
 20
298.0167511965844938
 30
0.0
 40
3.0499999999999932
210
0.0
220
0.0
230
-1.0
 50
301.8107649499474974
 51
320.0000000000276259
  0
ARC
  5
EA88
  8
VISIBLE
 10
-793.4881664467682185
 20
326.9167511965846984
 30
0.0
 40
3.0500000000000309
210
0.0
220
0.0
230
-1.0
 50
320.0000000000216005
 51
90.0
  0
ARC
  5
EA8B
  8
VISIBLE
 10
-1643.406674231659963
 20
326.9167511965832205
 30
0.0
 40
3.0500000000000012
210
0.0
220
0.0
230
-1.0
 50
90.0
 51
219.9999999999722888
  0
ARC
  5
EA8C
  8
VISIBLE
 10
-1619.1566948906358903
 20
298.0167511965835274
 30
0.0
 40
3.0499999999999989
210
0.0
220
0.0
230
-1.0
 50
219.9999999999782858
 51
238.1892350500525026
  0
ARC
  5
EA8E
  8
VISIBLE
 10
1545.738145787790927
 20
298.0167511965844938
 30
0.0
 40
3.0499999999999421
 50
238.1892356432717861
 51
270.0
  0
ARC
  5
EA8F
  8
VISIBLE
 10
1619.1566948906358903
 20
298.0167511965835274
 30
0.0
 40
3.0499999999999332
 50
270.0
 51
301.8107643567282139
  0
ARC
  5
EA93
  8
VISIBLE
 10
-1545.738145787790927
 20
298.0167511965844938
 30
0.0
 40
3.0499999999999932
210
0.0
220
0.0
230
-1.0
 50
301.8107649499474974
 51
320.0000000000276259
  0
ARC
  5
EA94
  8
VISIBLE
 10
-1521.4881664467689006
 20
326.9167511965846984
 30
0.0
 40
3.0500000000000309
210
0.0
220
0.0
230
-1.0
 50
320.0000000000216005
 51
90.0
  0
LINE
  5
EAC8
  8
0
 10
1767.4474203392139771
 20
1233.3667511965838912
 30
0.0
 11
1826.4474203392139771
 21
1233.3667511965838912
 31
0.0
  0
LINE
  5
EB03
  8
0
 10
854.4474203392140907
 20
294.9667511965840845
 30
0.0
 11
854.4474203392140907
 21
307.5528208503245082
 31
0.0
  0
LINE
  5
EB0B
  8
0
 10
854.4474203392140907
 20
282.3806815428437176
 30
0.0
 11
854.4474203392140907
 21
294.9667511965840845
 31
0.0
  0
LINE
  5
EB15
  8
0
 10
1582.4474203392139771
 20
294.9667511965840845
 30
0.0
 11
1582.4474203392139771
 21
307.5528208503245082
 31
0.0
  0
LINE
  5
EB16
  8
0
 10
1582.4474203392139771
 20
282.3806815428437176
 30
0.0
 11
1582.4474203392139771
 21
294.9667511965840845
 31
0.0
  0
LINE
  5
EB18
  8
0
 10
1619.1566948906358903
 20
294.9667511965835729
 30
0.0
 11
1545.738145787790927
 21
294.9667511965845961
 31
0.0
  0
LINE
  5
EB3E
  8
0
 62
     7
 10
766.343313320547054
 20
3396.4850197497889894
 30
0.0
 11
550.10271873994418
 21
3396.4850197497889894
 31
0.0
  0
LINE
  5
EB3F
  8
0
 62
     7
 10
766.343313320547054
 20
2198.4850197497889894
 30
0.0
 11
550.10271873994418
 21
2198.4850197497889894
 31
0.0
  0
LINE
  5
EB40
  8
0
 62
     7
 10
576.7693854066106951
 20
3356.4850197497889894
 30
0.0
 11
576.7693854066102404
 21
2892.3794767988970307
 31
0.0
  0
LINE
  5
EB41
  8
0
 62
     7
 10
576.7693854066106951
 20
2238.4850197497889894
 30
0.0
 11
576.7693854066106951
 21
2642.9338313247681072
 31
0.0
  0
SOLID
  5
EB42
  8
0
 62
     7
 10
570.1027187399439526
 20
3356.4850197497889894
 30
0.0
 11
583.4360520732773239
 21
3356.4850197497889894
 31
0.0
 12
576.7693854066106951
 22
3396.4850197497889894
 32
0.0
 13
576.7693854066106951
 23
3396.4850197497889894
 33
0.0
  0
SOLID
  5
EB43
  8
0
 62
     7
 10
570.1027187399437253
 20
2238.4850197497889894
 30
0.0
 11
583.4360520732773239
 21
2238.4850197497889894
 31
0.0
 12
576.7693854066106951
 22
2198.4850197497889894
 32
0.0
 13
576.7693854066106951
 23
2198.4850197497889894
 33
0.0
  0
TEXT
  5
EB44
  8
0
 62
     7
 10
591.7693854066102404
 20
2666.6905517871527991
 30
0.0
 40
30.0
  1
1198 O/A
 50
90.0
  0
LINE
  5
EBA1
  8
0
 62
     7
 10
1767.4512223408039517
 20
2249.9850197497971749
 30
0.0
 11
1826.4474203392139771
 21
2249.9850197497971749
 31
0.0
  0
LINE
  5
EBA5
  8
0
 10
1767.4512223408039517
 20
3334.4850197497921727
 30
0.0
 11
1767.4512223408039517
 21
3389.4850197497921727
 31
0.0
  0
LINE
  5
EBA6
  8
0
 10
1826.4474203392139771
 20
2249.9850197497971749
 30
0.0
 11
1826.4474203392139771
 21
3345.9850197498008129
 31
0.0
  0
LINE
  5
EC38
  8
0
 62
     7
 10
616.5543473661202825
 20
1265.3963043704820848
 30
0.0
 11
465.7885256124716875
 21
1265.8376247061580671
 31
0.0
  0
LINE
  5
EC39
  8
0
 62
     7
 10
616.5543473661202825
 20
327.1362497165137029
 30
0.0
 11
465.7885256124716875
 21
327.1362497165137029
 31
0.0
  0
LINE
  5
EC3A
  8
0
 62
     7
 10
503.3689885003191762
 20
1225.8376247061580671
 30
0.0
 11
503.3689885003187214
 21
810.8380870092036048
 31
0.0
  0
LINE
  5
EC3B
  8
0
 62
     7
 10
510.0356551669856913
 20
367.1362497165137029
 30
0.0
 11
510.0356551669856913
 21
662.0519133694496077
 31
0.0
  0
SOLID
  5
EC3C
  8
0
 62
     7
 10
496.7023218336524906
 20
1225.8376247061580671
 30
0.0
 11
510.0356551669856913
 21
1225.8376247061580671
 31
0.0
 12
503.3689885003191762
 22
1265.8376247061580671
 32
0.0
 13
503.3689885003191762
 23
1265.8376247061580671
 33
0.0
  0
SOLID
  5
EC3D
  8
0
 62
     7
 10
503.3689885003190057
 20
367.1362497165137029
 30
0.0
 11
516.7023218336524906
 21
367.1362497165135892
 31
0.0
 12
510.0356551669856913
 22
327.1362497165137029
 32
0.0
 13
510.0356551669856913
 23
327.1362497165137029
 33
0.0
  0
TEXT
  5
EC3E
  8
0
 62
     7
 10
513.8347953120209013
 20
700.8672614433053241
 30
0.0
 40
30.0
  1
936
 50
90.0
  0
ENDSEC
  0
EOF
