  0
SECTION
  2
HEADER
  9
$ACADVER
  1
AC1009
  9
$INSBASE
 10
0.0
 20
0.0
 30
0.0
  9
$EXTMIN
 10
-150.7206758733973118
 20
0.0
 30
0.0
  9
$EXTMAX
 10
5236.6666666666651508
 20
4321.4820693865121939
 30
0.0
  9
$LIMMIN
 10
0.0
 20
0.0
  9
$LIMMAX
 10
3890.0
 20
2660.0
  9
$ORTHOMODE
 70
     1
  9
$REGENMODE
 70
     1
  9
$FILLMODE
 70
     1
  9
$QTEXTMODE
 70
     0
  9
$MIRRTEXT
 70
     0
  9
$DRAGMODE
 70
     2
  9
$LTSCALE
 40
300.0
  9
$OSMODE
 70
  4095
  9
$ATTMODE
 70
     1
  9
$TEXTSIZE
 40
40.0
  9
$TRACEWID
 40
0.05
  9
$TEXTSTYLE
  7
TITLE3
  9
$CLAYER
  8
0
  9
$CELTYPE
  6
BYLAYER
  9
$CECOLOR
 62
   256
  9
$DIMSCALE
 40
1.0
  9
$DIMASZ
 40
0.12
  9
$DIMEXO
 40
0.05
  9
$DIMDLI
 40
0.5
  9
$DIMRND
 40
0.0
  9
$DIMDLE
 40
0.0
  9
$DIMEXE
 40
0.1
  9
$DIMTP
 40
0.1
  9
$DIMTM
 40
0.1
  9
$DIMTXT
 40
0.12
  9
$DIMCEN
 40
0.0
  9
$DIMTSZ
 40
0.0
  9
$DIMTOL
 70
     0
  9
$DIMLIM
 70
     0
  9
$DIMTIH
 70
     1
  9
$DIMTOH
 70
     1
  9
$DIMSE1
 70
     0
  9
$DIMSE2
 70
     0
  9
$DIMTAD
 70
     0
  9
$DIMZIN
 70
     7
  9
$DIMBLK
  1

  9
$DIMASO
 70
     0
  9
$DIMSHO
 70
     0
  9
$DIMPOST
  1

  9
$DIMAPOST
  1
mm
  9
$DIMALT
 70
     0
  9
$DIMALTD
 70
     2
  9
$DIMALTF
 40
25.3999999999999986
  9
$DIMLFAC
 40
1.0
  9
$DIMTOFL
 70
     0
  9
$DIMTVP
 40
0.0
  9
$DIMTIX
 70
     0
  9
$DIMSOXD
 70
     0
  9
$DIMSAH
 70
     0
  9
$DIMBLK1
  1

  9
$DIMBLK2
  1

  9
$DIMSTYLE
  2
AM_ANSI
  9
$DIMCLRD
 70
   256
  9
$DIMCLRE
 70
   256
  9
$DIMCLRT
 70
     2
  9
$DIMTFAC
 40
0.71
  9
$DIMGAP
 40
0.06
  9
$LUNITS
 70
     2
  9
$LUPREC
 70
     2
  9
$SKETCHINC
 40
0.1
  9
$FILLETRAD
 40
0.0
  9
$AUNITS
 70
     0
  9
$AUPREC
 70
     2
  9
$MENU
  1
\acad12\support\cnc
  9
$ELEVATION
 40
0.0
  9
$PELEVATION
 40
0.0
  9
$THICKNESS
 40
0.0
  9
$LIMCHECK
 70
     0
  9
$BLIPMODE
 70
     0
  9
$CHAMFERA
 40
0.0
  9
$CHAMFERB
 40
0.0
  9
$SKPOLY
 70
     0
  9
$TDCREATE
 40
2451029.6595717589370906
  9
$TDUPDATE
 40
2458193.366064814850688
  9
$TDINDWG
 40
1.0688217361000001
  9
$TDUSRTIMER
 40
1.0688176157
  9
$USRTIMER
 70
     1
  9
$ANGBASE
 50
0.0
  9
$ANGDIR
 70
     0
  9
$PDMODE
 70
     2
  9
$PDSIZE
 40
5.0
  9
$PLINEWID
 40
0.0
  9
$COORDS
 70
     1
  9
$SPLFRAME
 70
     0
  9
$SPLINETYPE
 70
     6
  9
$SPLINESEGS
 70
     8
  9
$ATTDIA
 70
     1
  9
$ATTREQ
 70
     1
  9
$HANDLING
 70
     1
  9
$HANDSEED
  5
89C2
  9
$SURFTAB1
 70
     6
  9
$SURFTAB2
 70
     6
  9
$SURFTYPE
 70
     6
  9
$SURFU
 70
     6
  9
$SURFV
 70
     6
  9
$UCSNAME
  2

  9
$UCSORG
 10
0.0
 20
0.0
 30
0.0
  9
$UCSXDIR
 10
1.0
 20
0.0
 30
0.0
  9
$UCSYDIR
 10
0.0
 20
1.0
 30
0.0
  9
$PUCSNAME
  2

  9
$PUCSORG
 10
0.0
 20
0.0
 30
0.0
  9
$PUCSXDIR
 10
1.0
 20
0.0
 30
0.0
  9
$PUCSYDIR
 10
0.0
 20
1.0
 30
0.0
  9
$USERI1
 70
     0
  9
$USERI2
 70
     0
  9
$USERI3
 70
     0
  9
$USERI4
 70
     0
  9
$USERI5
 70
     0
  9
$USERR1
 40
0.0
  9
$USERR2
 40
0.0
  9
$USERR3
 40
0.0
  9
$USERR4
 40
0.0
  9
$USERR5
 40
0.0
  9
$WORLDVIEW
 70
     1
  9
$SHADEDGE
 70
     3
  9
$SHADEDIF
 70
    70
  9
$TILEMODE
 70
     1
  9
$MAXACTVP
 70
    16
  9
$PLIMCHECK
 70
     0
  9
$PEXTMIN
 10
1.0000000000000000E+20
 20
1.0000000000000000E+20
 30
1.0000000000000000E+20
  9
$PEXTMAX
 10
-1.0000000000000000E+20
 20
-1.0000000000000000E+20
 30
-1.0000000000000000E+20
  9
$PLIMMIN
 10
0.0
 20
0.0
  9
$PLIMMAX
 10
12.0
 20
9.0
  9
$UNITMODE
 70
     0
  9
$VISRETAIN
 70
     0
  9
$PLINEGEN
 70
     0
  9
$PSLTSCALE
 70
     0
  0
ENDSEC
  0
SECTION
  2
TABLES
  0
TABLE
  2
VPORT
 70
     1
  0
VPORT
  2
*ACTIVE
 70
     0
 10
0.0
 20
0.0
 11
1.0
 21
1.0
 12
-216.9808779769136891
 22
-485.7146212591168819
 13
0.0
 23
0.0
 14
25.0
 24
25.0
 15
100.0
 25
100.0
 16
-0.0000000000040927
 26
0.0
 36
18112.5755859425007657
 17
2542.9729156494140625
 27
2160.740966796875
 37
0.0
 40
4248.5483459286888319
 41
1.9174406604747161
 42
50.0
 43
0.0
 44
0.0
 50
0.0
 51
0.0
 71
     0
 72
   100
 73
     1
 74
     0
 75
     0
 76
     0
 77
     0
 78
     0
  0
ENDTAB
  0
TABLE
  2
LTYPE
 70
    20
  0
LTYPE
  2
CONTINUOUS
 70
     0
  3
Solid line
 72
    65
 73
     0
 40
0.0
  0
LTYPE
  2
HIDDEN
 70
     0
  3
Hidden __ __ __ __ __ __ __ __ __ __ __ __ __ _
 72
    65
 73
     2
 40
0.375
 49
0.25
 49
-0.125
  0
LTYPE
  2
PHANTOM2
 70
     0
  3
Phantom (.5x) ___ _ _ ___ _ _ ___ _ _ ___ _ _
 72
    65
 73
     6
 40
1.25
 49
0.625
 49
-0.125
 49
0.125
 49
-0.125
 49
0.125
 49
-0.125
  0
LTYPE
  2
CENTER
 70
     0
  3
Center ____ _ ____ _ ____ _ ____ _ ____ _ ____
 72
    65
 73
     4
 40
2.0
 49
1.25
 49
-0.25
 49
0.25
 49
-0.25
  0
LTYPE
  2
AMCONSTR
 70
     0
  3
_______________________
 72
    65
 73
     2
 40
9999.0
 49
9999.0
 49
0.0
  0
LTYPE
  2
CENTER2
 70
     0
  3
Center (.5x) ___ _ ___ _ ___ _ ___ _ ___ _ ___
 72
    65
 73
     4
 40
1.125
 49
0.75
 49
-0.125
 49
0.125
 49
-0.125
  0
LTYPE
  2
HIDDEN2
 70
     0
  3
Hidden (.5x) _ _ _ _ _ _ _ _ _ _ _ _ _ _ _ _ _
 72
    65
 73
     2
 40
0.1875
 49
0.125
 49
-0.0625
  0
LTYPE
  2
AMZIGZAG2
 70
     0
  3
/\/-/\/-/\/-/\/-/\/-/\/
 72
    65
 73
     2
 40
0.4401
 49
0.0001
 49
-0.4400000000000003
  0
LTYPE
  2
ACANSTGB
 70
     0
  3
__ . . __ . .
 72
    65
 73
     6
 40
0.35433070866
 49
0.15748031496
 49
-0.03937007874
 49
0.03937007874
 49
-0.03937007874
 49
0.03937007874
 49
-0.03937007874
  0
LTYPE
  2
ACANSTGL
 70
     0
  3
_ _ _ _ _
 72
    65
 73
     2
 40
0.11811023622
 49
0.07874015748
 49
-0.03937007874
  0
LTYPE
  2
ASULTYPE
 70
     0
  3
Solid line
 72
    65
 73
     2
 40
3.0
 49
2.5
 49
0.5
  0
LTYPE
  2
ASVLTYPE
 70
     0
  3
__ __ __ __ __ __ __ __ __ __ __ __ __ __ __ __ __ __ __ __ __
 72
    65
 73
     2
 40
0.75
 49
0.5
 49
-0.25
  0
LTYPE
  2
AM_ISO02W050
 70
     0
  3
__ __ __ __ __ __ __ __ __ __ __ __ __ __ __
 72
    65
 73
     2
 40
7.5
 49
6.0
 49
-1.5
  0
LTYPE
  2
AM_ISO08W050
 70
     0
  3
____ . ____ . ____ . ____ . ____ . ____ . ____
 72
    65
 73
     4
 40
18.0
 49
12.0
 49
-1.5
 49
3.0
 49
-1.5
  0
LTYPE
  2
AM_ISO09W050
 70
     0
  3
_____ . . _____ . . _____ . . ____ .. ____
 72
    65
 73
     6
 40
22.5
 49
12.0
 49
-1.5
 49
3.0
 49
-1.5
 49
3.0
 49
-1.5
  0
LTYPE
  2
AM_ISO08W050X2
 70
     0
  3
__ . __ . __ . __ . __ . __
 72
    65
 73
     4
 40
9.0
 49
6.0
 49
-0.75
 49
1.5
 49
-0.75
  0
LTYPE
  2
AM_ISO02W050X2
 70
     0
  3
 _ _ _ _ _ _ _ _ _ _ _ _
 72
    65
 73
     2
 40
3.75
 49
3.0
 49
-0.75
  0
LTYPE
  2
AMZIGZAG
 70
     0
  3
/\/-/\/-/\/-/\/-/\/-/\/
 72
    65
 73
     2
 40
11.0000999999999998
 49
0.0001
 49
-11.0
  0
ENDTAB
  0
TABLE
  2
LAYER
 70
     2
  0
LAYER
  2
0
 70
     0
 62
     7
  6
CONTINUOUS
  0
LAYER
  2
DIM
 70
     0
 62
     7
  6
CONTINUOUS
  0
ENDTAB
  0
TABLE
  2
STYLE
 70
     8
  0
STYLE
  2
STANDARD
 70
     0
 40
0.0
 41
1.0
 50
0.0
 71
     0
 42
0.2
  3
txt
  4

  0
STYLE
  2
ANNOTATIVE
 70
     0
 40
0.0
 41
1.0
 50
0.0
 71
     0
 42
0.2
  3
txt
  4

  0
STYLE
  2
TITLE3
 70
     0
 40
40.0
 41
1.0
 50
0.0
 71
     0
 42
40.0
  3
SIMPLEX.shx
  4

  0
STYLE
  2
SIMPLEX
 70
     0
 40
40.0
 41
1.0
 50
0.0
 71
     0
 42
25.0
  3
SIMPLEX
  4

  0
STYLE
  2
TITLE5
 70
     0
 40
50.0
 41
1.0
 50
0.0
 71
     0
 42
50.0
  3
SIMPLEX.shx
  4

  0
STYLE
  2
ACANSTS
 70
     0
 40
1.0
 41
1.0
 50
0.0
 71
     0
 42
40.0
  3
romans.shx
  4

  0
STYLE
  2
ACANSGDT
 70
     0
 40
0.0
 41
1.0
 50
0.0
 71
     0
 42
40.0
  3
amgdt.shx
  4

  0
STYLE
  2

 70
     1
 40
0.0
 41
1.0
 50
0.0
 71
     0
 42
40.0
  3
genltshp.shx
  4

  0
ENDTAB
  0
TABLE
  2
VIEW
 70
     0
  0
ENDTAB
  0
TABLE
  2
UCS
 70
     0
  0
ENDTAB
  0
TABLE
  2
APPID
 70
    34
  0
APPID
  2
ACAD
 70
     0
  0
APPID
  2
ACADANNOTATIVE
 70
     0
  0
APPID
  2
ACAD_MLEADERVER
 70
     0
  0
APPID
  2
DCO15
 70
     0
  0
APPID
  2
GENIUS_GENDIM_13
 70
     0
  0
APPID
  2
GENIUS_GENDTOL_13
 70
     0
  0
APPID
  2
GENIUS_GE3DTOL_13
 70
     0
  0
APPID
  2
MCAD_NO_VIS
 70
     0
  0
APPID
  2
ACAD_TEMP_GRAPHIC
 70
     0
  0
APPID
  2
AD_DRAW
 70
     0
  0
APPID
  2
ACATTRIBSERVICES
 70
     0
  0
APPID
  2
ASURF_PCURVE_APPNAME
 70
     0
  0
APPID
  2
AMG_3D2D_5_0
 70
     0
  0
APPID
  2
DESIGNERASSEMBLIES
 70
     0
  0
APPID
  2
ACADM_DIM_EDIT
 70
     0
  0
APPID
  2
AMDT_DM_ADJ
 70
     0
  0
APPID
  2
ACAD_PSEXT
 70
     0
  0
APPID
  2
ACAD_EXEMPT_FROM_CAD_STANDARDS
 70
     0
  0
APPID
  2
AMG_3D2D_5_00
 70
     0
  0
APPID
  2
AMG_3D2D_5_01
 70
     0
  0
APPID
  2
AMG_3D2D_5_02
 70
     0
  0
APPID
  2
AMG_3D2D_5_03
 70
     0
  0
APPID
  2
AMG_3D2D_5_04
 70
     0
  0
APPID
  2
AMG_3D2D_5_05
 70
     0
  0
APPID
  2
AMG_3D2D_5_06
 70
     0
  0
APPID
  2
AMG_3D2D_5_07
 70
     0
  0
APPID
  2
AMG_3D2D_5_08
 70
     0
  0
APPID
  2
ACAD_DSTYLE_DIMARC_LENGTH_
 70
     0
  0
APPID
  2
ACAD_DSTYLE_DIM_LINETYPE
 70
     0
  0
APPID
  2
ACAD_DSTYLE_DIM_EXT1_LINETYPE
 70
     0
  0
APPID
  2
ACAD_DSTYLE_DIM_EXT2_LINETYPE
 70
     0
  0
APPID
  2
ACAD_DSTYLE_DIMBREAK
 70
     0
  0
APPID
  2
ACAD_DSTYLE_DIMJAG
 70
     0
  0
APPID
  2
ACAD_NAV_VCDISPLAY
 70
     0
  0
ENDTAB
  0
TABLE
  2
DIMSTYLE
 70
     9
  0
DIMSTYLE
  2
STANDARD
 70
     0
  3

  4

  5

  6

  7

 40
1.0
 41
0.18
 42
0.0625
 43
0.38
 44
0.18
 45
0.0
 46
0.0
 47
0.0
 48
0.0
140
0.18
141
0.09
142
0.0
143
25.3999999999999986
144
1.0
145
0.0
146
1.0
147
0.09
 71
     0
 72
     0
 73
     1
 74
     1
 75
     0
 76
     0
 77
     0
 78
     0
170
     0
171
     2
172
     0
173
     0
174
     0
175
     0
176
     0
177
     0
178
     0
  0
DIMSTYLE
  2
ANNOTATIVE
 70
     0
  3

  4

  5

  6

  7

 40
1.0
 41
0.18
 42
0.0625
 43
0.38
 44
0.18
 45
0.0
 46
0.0
 47
0.0
 48
0.0
140
0.18
141
0.09
142
0.0
143
25.3999999999999986
144
1.0
145
0.0
146
1.0
147
0.09
 71
     0
 72
     0
 73
     1
 74
     1
 75
     0
 76
     0
 77
     0
 78
     0
170
     0
171
     2
172
     0
173
     0
174
     0
175
     0
176
     0
177
     0
178
     0
  0
DIMSTYLE
  2
AM_ANSI
 70
     0
  3

  4
mm
  5

  6

  7

 40
1.0
 41
0.12
 42
0.05
 43
0.5
 44
0.1
 45
0.0
 46
0.0
 47
0.1
 48
0.1
140
0.12
141
0.0
142
0.0
143
25.3999999999999986
144
1.0
145
0.0
146
0.71
147
0.06
 71
     0
 72
     0
 73
     1
 74
     1
 75
     0
 76
     0
 77
     0
 78
     7
170
     0
171
     2
172
     0
173
     0
174
     0
175
     0
176
   256
177
   256
178
     2
  0
DIMSTYLE
  2
AM_ANSI$3
 70
     0
  3

  4
mm
  5

  6

  7

 40
1.0
 41
0.12
 42
0.05
 43
0.5
 44
0.1
 45
0.0
 46
0.0
 47
0.1
 48
0.1
140
0.12
141
0.0
142
0.0
143
25.3999999999999986
144
1.0
145
0.0
146
0.71
147
0.06
 71
     0
 72
     0
 73
     1
 74
     1
 75
     0
 76
     0
 77
     0
 78
     7
170
     0
171
     2
172
     0
173
     0
174
     0
175
     0
176
   256
177
   256
178
     2
  0
DIMSTYLE
  2
AM_ANSI$4
 70
     0
  3

  4
mm
  5

  6

  7

 40
1.0
 41
0.12
 42
0.05
 43
0.5
 44
0.1
 45
0.0
 46
0.0
 47
0.1
 48
0.1
140
0.12
141
0.0
142
0.0
143
25.3999999999999986
144
1.0
145
0.0
146
0.71
147
0.06
 71
     0
 72
     0
 73
     1
 74
     1
 75
     0
 76
     0
 77
     0
 78
     7
170
     0
171
     2
172
     0
173
     0
174
     0
175
     0
176
   256
177
   256
178
     2
  0
DIMSTYLE
  2
AM_ANSI$7
 70
     0
  3

  4
mm
  5

  6

  7

 40
1.0
 41
0.12
 42
0.05
 43
0.5
 44
0.1
 45
0.0
 46
0.0
 47
0.1
 48
0.1
140
0.12
141
0.0
142
0.0
143
25.3999999999999986
144
1.0
145
0.0
146
0.71
147
0.06
 71
     0
 72
     0
 73
     1
 74
     1
 75
     0
 76
     0
 77
     0
 78
     7
170
     0
171
     2
172
     0
173
     0
174
     0
175
     0
176
   256
177
   256
178
     2
  0
DIMSTYLE
  2
AM_ANSI$SF
 70
     0
  3

  4
mm
  5

  6

  7

 40
1.0
 41
0.12
 42
0.05
 43
0.5
 44
0.1
 45
0.0
 46
0.0
 47
0.1
 48
0.1
140
0.12
141
0.0
142
0.0
143
25.3999999999999986
144
1.0
145
0.0
146
0.71
147
0.06
 71
     0
 72
     0
 73
     1
 74
     1
 75
     1
 76
     1
 77
     0
 78
     7
170
     0
171
     2
172
     0
173
     0
174
     0
175
     0
176
   256
177
   256
178
     2
  0
DIMSTYLE
  2
AM_ANSI$SH
 70
     0
  3

  4
mm
  5

  6

  7

 40
1.0
 41
0.12
 42
0.05
 43
0.5
 44
0.1
 45
0.0
 46
0.0
 47
0.1
 48
0.1
140
0.12
141
0.0
142
0.0
143
25.3999999999999986
144
1.0
145
0.0
146
0.71
147
0.06
 71
     0
 72
     0
 73
     1
 74
     1
 75
     1
 76
     1
 77
     0
 78
     7
170
     0
171
     2
172
     0
173
     1
174
     0
175
     0
176
   256
177
   256
178
     2
  0
ENDTAB
  0
ENDSEC
  0
SECTION
  2
BLOCKS
  0
BLOCK
  8
0
  2
$MODEL_SPACE
 70
     0
 10
0.0
 20
0.0
 30
0.0
  3
$MODEL_SPACE
  1

  0
ENDBLK
  5
8469
  8
0
  0
BLOCK
 67
     1
  8
0
  2
$PAPER_SPACE
 70
     0
 10
0.0
 20
0.0
 30
0.0
  3
$PAPER_SPACE
  1

  0
ENDBLK
  5
8465
 67
     1
  8
0
  0
BLOCK
  8
0
  2
LINES
 70
     0
 10
0.0
 20
0.0
 30
0.0
  3
LINES
  1

  0
ENDBLK
  5
5C9B
  8
0
  0
BLOCK
  8
0
  2
GENAXEH
 70
     0
 10
0.0
 20
0.0
 30
0.0
  3
GENAXEH
  1

  0
LINE
  5
77E1
  8
0
 10
-1.0
 20
0.0
 30
0.0
 11
1.0
 21
0.0
 31
0.0
  0
ENDBLK
  5
77E3
  8
0
  0
ENDSEC
  0
SECTION
  2
ENTITIES
  0
TEXT
  5
5CA6
  8
0
 62
     7
 10
3881.2017952893320398
 20
414.1304592494566919
 30
0.0
 40
59.9999999984999874
  1
temperzone OPA 161RKTYH
  7
TITLE5
 72
     1
 11
4501.2017952738306121
 21
414.1304592494566919
 31
0.0
  0
TEXT
  5
5CA7
  8
0
 62
     7
 10
4623.3333332189959037
 20
93.3333333309999489
 30
0.0
 40
39.9999999989999893
  1
OPA161RKTYH
 41
0.9620853080568812
  7
TITLE3
 72
     5
 11
5009.9999998760004019
 21
93.3333333309999489
 31
0.0
  0
TEXT
  5
5CA8
  8
0
 62
     7
 10
3841.2017952903320293
 20
324.276737223278019
 30
0.0
 40
59.9999999984999874
  1
FOOT MTD HORIZ DISCHARGE
  7
TITLE5
 72
     1
 11
4501.2017952738306121
 21
324.276737223278019
 31
0.0
  0
INSERT
  5
5CA9
  8
DIM
  2
LINES
 10
331.1690179110167946
 20
3587.5048377685579908
 30
0.0
  0
TEXT
  5
5CAA
  8
0
 62
     7
 10
4015.8550654735809076
 20
146.6666666630000009
 30
0.0
 40
39.9999999989999893
  1
15-03-18
 41
0.7088607594936854
  7
TITLE3
 72
     5
 11
4229.1883988015852083
 21
146.6666666630000009
 31
0.0
  0
LINE
  5
5CCE
  8
0
 62
     7
 10
941.5360143388816141
 20
2069.1305085760282054
 30
0.0
 11
2045.5360143388820688
 21
2069.1305085760282054
 31
0.0
  0
LINE
  5
5CD7
  8
0
 62
     7
 10
2045.5360143388820688
 20
3252.1305085760309339
 30
0.0
 11
2045.5360143388820688
 21
2069.1305085760282054
 31
0.0
  0
LINE
  5
5CF1
  8
0
 62
     7
 10
2043.2049142647190365
 20
1258.9696532723289693
 30
0.0
 11
943.5636332714893797
 21
1258.9696532723289693
 31
0.0
  0
LINE
  5
5CF2
  8
0
 62
     7
 10
943.5636332714893797
 20
1258.9696532723280598
 30
0.0
 11
943.5636332714893797
 21
329.9667511965836866
 31
0.0
  0
LINE
  5
5CF7
  8
0
 62
     7
 10
2043.204914264719946
 20
329.9667511965836866
 30
0.0
 11
2043.2049142647190365
 21
1258.9696532723289693
 31
0.0
  0
LINE
  5
5CF8
  8
0
 62
     7
 10
2103.5393400537459456
 20
1198.0715281194638919
 30
0.0
 11
2103.5393400537459456
 21
973.0715281194649151
 31
0.0
  0
LINE
  5
5CF9
  8
0
 62
     7
 10
2103.4722123372930582
 20
765.9667511965833455
 30
0.0
 11
2103.4722123372939677
 21
423.966751196583175
 31
0.0
  0
LINE
  5
5D0B
  8
0
 62
     7
 10
943.5636332714893797
 20
329.9667511965838003
 30
0.0
 11
2043.204914264719946
 21
329.9667511965853919
 31
0.0
  0
INSERT
  5
5D33
  8
DIM
  2
LINES
 10
254.3613510031640885
 20
12950.844675060670852
 30
0.0
  0
INSERT
  5
5D34
  8
DIM
  2
LINES
 10
4447.4749797806316565
 20
10493.2569070502504474
 30
0.0
  0
TEXT
  5
5D35
  8
DIM
 10
9638.0424665801456285
 20
11898.1701107899498311
 30
0.0
 40
15.0
  1

  7
TITLE3
 72
     1
 11
9638.0424665801456285
 21
11898.1701107899498311
 31
0.0
  0
TEXT
  5
5D36
  8
DIM
 10
9638.0424665801456285
 20
11898.1701107899498311
 30
0.0
 40
15.0
  1

  7
TITLE3
 72
     1
 11
9638.0424665801456285
 21
11898.1701107899498311
 31
0.0
  0
TEXT
  5
5D37
  8
DIM
 10
14638.0424665801401716
 20
11898.1701107899498311
 30
0.0
 40
15.0
  1

  7
TITLE3
 72
     1
 11
14638.0424665801401716
 21
11898.1701107899498311
 31
0.0
  0
TEXT
  5
5D38
  8
DIM
 10
14638.0424665801401716
 20
11898.1701107899498311
 30
0.0
 40
15.0
  1

  7
TITLE3
 72
     1
 11
14638.0424665801401716
 21
11898.1701107899498311
 31
0.0
  0
LINE
  5
5D39
  8
0
 62
     7
 10
1394.4577710063640552
 20
1182.1353984256938929
 30
0.0
 11
1355.1577710063641007
 21
1221.4353984256899821
 31
0.0
  0
LINE
  5
5D3A
  8
0
 62
     7
 10
1315.8577710063639188
 20
1182.1353984256938929
 30
0.0
 11
1355.1577710063641007
 21
1221.4353984256899821
 31
0.0
  0
LINE
  5
5D3B
  8
0
 62
     7
 10
1340.4577710063640552
 20
1126.6353984256938929
 30
0.0
 11
1369.8577710063639188
 21
1126.6353984256938929
 31
0.0
  0
LINE
  5
5D3C
  8
0
 62
     7
 10
1369.8577710063639188
 20
1126.6353984256938929
 30
0.0
 11
1369.8577710063639188
 21
1182.1353984256938929
 31
0.0
  0
LINE
  5
5D3D
  8
0
 62
     7
 10
1369.8577710063639188
 20
1182.1353984256938929
 30
0.0
 11
1394.4577710063640552
 21
1182.1353984256938929
 31
0.0
  0
LINE
  5
5D3E
  8
0
 62
     7
 10
1340.4577710063640552
 20
1126.6353984256938929
 30
0.0
 11
1340.4577710063640552
 21
1182.1353984256938929
 31
0.0
  0
LINE
  5
5D3F
  8
0
 62
     7
 10
1340.4577710063640552
 20
1182.1353984256938929
 30
0.0
 11
1315.8577710063639188
 21
1182.1353984256938929
 31
0.0
  0
TEXT
  5
5D40
  8
0
 62
     7
 10
3841.5837005335761205
 20
147.7749518134679079
 30
0.0
 40
31.9999999999999893
  1
Date
  7
SIMPLEX
  0
TEXT
  5
5D41
  8
0
 62
     7
 10
5044.8149231648030764
 20
172.6710693645480887
 30
0.0
 40
31.9999999999999893
  1
Revision
 41
0.7812095035934778
  7
SIMPLEX
 72
     5
 11
5185.2838320014197961
 21
172.6710693645480887
 31
0.0
  0
LINE
  5
5D42
  8
0
 62
     7
 10
5029.3217999868793413
 20
27.7899904644228393
 30
0.0
 11
5029.3217999868793413
 21
224.3582076113954997
 31
0.0
  0
LINE
  5
5D43
  8
0
 62
     7
 10
3809.1353726095289858
 20
502.9529712891393842
 30
0.0
 11
3809.1353726095289858
 21
27.7899904644228393
 31
0.0
  0
LINE
  5
5D44
  8
0
 62
     7
 10
4605.8849040174582115
 20
27.7899904644228393
 30
0.0
 11
4605.8849040174582115
 21
224.3582076113954997
 31
0.0
  0
LINE
  5
5D45
  8
0
 62
     7
 10
4605.8849040174563925
 20
124.4167990259515051
 30
0.0
 11
3809.1353726095289858
 21
124.4167990259515051
 31
0.0
  0
LINE
  5
5D46
  8
0
 62
     7
 10
5198.7672869837870167
 20
224.3582076113954997
 30
0.0
 11
3809.1353726095289858
 21
224.3582076113954997
 31
0.0
  0
LINE
  5
5D47
  8
0
 62
     7
 10
3809.1353726095289858
 20
27.7899904644228393
 30
0.0
 11
5198.3706107459847772
 21
27.7899904644228393
 31
0.0
  0
LINE
  5
5D48
  8
0
 62
     7
 10
5198.3706107459847772
 20
27.7899904644228393
 30
0.0
 11
5198.3706107459847772
 21
502.9529712891393842
 31
0.0
  0
LINE
  5
5D49
  8
0
 62
     7
 10
5198.3706107459847772
 20
502.9529712891393842
 30
0.0
 11
3809.1353726095289858
 21
502.9529712891393842
 31
0.0
  0
TEXT
  5
5D4A
  8
0
 62
     7
 10
3842.644292137480079
 20
63.896650753810242
 30
0.0
 40
26.6666666666666607
  1
Scale
 41
1.3701747965659661
  7
SIMPLEX
 72
     5
 11
3976.6169389128190232
 21
63.896650753810242
 31
0.0
  0
TEXT
  5
5D4B
  8
0
 62
     7
 10
4683.1454981343958934
 20
171.8579086756128049
 30
0.0
 40
26.6666666666666607
  1
Drawing No.
  7
SIMPLEX
 72
     2
 11
4915.5264505153481878
 21
171.8579086756128049
 31
0.0
  0
LINE
  5
5D4C
  8
0
 62
     7
 10
-150.7206758733973118
 20
0.0
 30
0.0
 11
5236.6666666666651508
 21
0.0
 31
0.0
  0
LINE
  5
5D4D
  8
0
 62
     7
 10
5236.6666666666651508
 20
0.0
 30
0.0
 11
5236.6666666666642413
 21
4321.4820693865121939
 31
0.0
  0
LINE
  5
5D4E
  8
0
 62
     7
 10
5236.6666666666642413
 20
4321.4820693865121939
 30
0.0
 11
-150.7206758733973118
 21
4321.4820693865121939
 31
0.0
  0
LINE
  5
5D4F
  8
0
 62
     7
 10
-150.7206758733973118
 20
4321.4820693865121939
 30
0.0
 11
-150.7206758733973118
 21
0.0
 31
0.0
  0
TEXT
  5
5D51
  8
0
 62
     7
 10
4047.8265604843500114
 20
60.615948988497621
 30
0.0
 40
40.0
  1
1:20
  7
TITLE3
  0
LINE
  5
5D54
  8
0
  6
PHANTOM2
 62
     7
 10
441.5324263165547904
 20
3250.9543970697550321
 30
0.0
 11
441.5324263165547904
 21
2069.1305085760282054
 31
0.0
  0
LINE
  5
5D55
  8
0
  6
PHANTOM2
 62
     7
 10
940.9254563016090742
 20
1569.1305085760279781
 30
0.0
 11
2045.5360143388820688
 21
1569.1305085760279781
 31
0.0
  0
LINE
  5
5D56
  8
0
  6
PHANTOM2
 62
     7
 10
911.6736756019638506
 20
3250.9543970697550321
 30
0.0
 11
441.5324263165547904
 21
3250.9543970697550321
 31
0.0
  0
LINE
  5
5D57
  8
0
  6
PHANTOM2
 62
     7
 10
911.6736756019638506
 20
2069.1305085760282054
 30
0.0
 11
441.5324263165547904
 21
2069.1305085760282054
 31
0.0
  0
LINE
  5
5D59
  8
0
  6
PHANTOM2
 62
     7
 10
2045.5360143388820688
 20
2023.4095512630519806
 30
0.0
 11
2045.5360143388820688
 21
1569.1305085760279781
 31
0.0
  0
TEXT
  5
5D5A
  8
0
 62
     7
 10
1129.59656388228791
 20
1593.7792689949380929
 30
0.0
 40
40.0
  1
500 min CLEARANCE
  7
TITLE3
  0
TEXT
  5
5D5B
  8
0
 62
     7
 10
515.6991554502427562
 20
2363.2319797424211174
 30
0.0
 40
40.0
  1
500 min CLEARANCE
 50
90.0
  7
TITLE3
  0
TEXT
  5
5D5C
  8
0
 62
     7
 10
1267.2315167528070106
 20
2823.8711498694237889
 30
0.0
 40
62.9999999984249968
  1
OPA
  7
TITLE5
 72
     1
 11
1355.7315167505948921
 21
2823.8711498694237889
 31
0.0
  0
TEXT
  5
5D5E
  8
0
 62
     7
 10
1139.0861410081270151
 20
765.0044587864422283
 30
0.0
 40
62.9999999984249968
  1
OPA161RKTYH
  7
TITLE5
 72
     1
 11
1455.5861410002150933
 21
765.0044587864422283
 31
0.0
  0
LINE
  5
5D5F
  8
0
 62
     7
 10
941.5360143388816141
 20
3252.1305085760282054
 30
0.0
 11
2045.5360143388820688
 21
3252.1305085760309339
 31
0.0
  0
LINE
  5
5D6C
  8
0
 62
     7
 10
941.5360143388816141
 20
3252.1305085760282054
 30
0.0
 11
941.5360143388816141
 21
2069.1305085760282054
 31
0.0
  0
LINE
  5
5D6D
  8
0
 62
     7
 10
2103.5360143388797951
 20
3209.1305085760268412
 30
0.0
 11
2103.5360143388797951
 21
2147.1305085760282054
 31
0.0
  0
LINE
  5
5D6E
  8
0
  6
PHANTOM2
 62
     7
 10
3692.6622255650390798
 20
3258.9696532723301061
 30
0.0
 11
2509.6622255650390798
 21
3258.9696532723301061
 31
0.0
  0
TEXT
  5
5D6F
  8
0
 62
     7
 10
2741.8783973617892116
 20
3174.4751029972599099
 30
0.0
 40
40.0
  1
2000 min CLEARANCE
  7
TITLE3
  0
LINE
  5
5D72
  8
0
  6
PHANTOM2
 62
     7
 10
3692.6622255650390798
 20
1292.9817639316061104
 30
0.0
 11
3692.6622255650390798
 21
3258.9696532723301061
 31
0.0
  0
LINE
  5
5D73
  8
0
  6
PHANTOM2
 62
     7
 10
2509.6622255650390798
 20
1293.0458925957789234
 30
0.0
 11
2509.6622255650390798
 21
3258.9696532723301061
 31
0.0
  0
LINE
  5
5D74
  8
0
 62
     7
 10
1921.1134924872110332
 20
1123.2820153058401047
 30
0.0
 11
1976.6134924872110332
 21
1123.2820153058401047
 31
0.0
  0
LINE
  5
5D75
  8
0
 62
     7
 10
1921.1134924872110332
 20
1093.8820153058391043
 30
0.0
 11
1976.6134924872110332
 21
1093.8820153058391043
 31
0.0
  0
LINE
  5
5D76
  8
0
 62
     7
 10
1921.1134924872110332
 20
1123.2820153058401047
 30
0.0
 11
1921.1134924872110332
 21
1093.8820153058391043
 31
0.0
  0
LINE
  5
5D77
  8
0
 62
     7
 10
1976.6134924872110332
 20
1069.2820153058401047
 30
0.0
 11
2015.9134924872118972
 21
1108.5820153058380129
 31
0.0
  0
LINE
  5
5D78
  8
0
 62
     7
 10
1976.6134924872110332
 20
1123.2820153058401047
 30
0.0
 11
1976.6134924872110332
 21
1147.8820153058391043
 31
0.0
  0
LINE
  5
5D79
  8
0
 62
     7
 10
1976.6134924872110332
 20
1147.8820153058391043
 30
0.0
 11
2015.9134924872118972
 21
1108.5820153058380129
 31
0.0
  0
LINE
  5
5D7A
  8
0
 62
     7
 10
1976.6134924872110332
 20
1093.8820153058391043
 30
0.0
 11
1976.6134924872110332
 21
1069.2820153058401047
 31
0.0
  0
LINE
  5
5D7B
  8
0
 62
     7
 10
1960.4134924872100783
 20
533.6617496919980113
 30
0.0
 11
1921.1134924872110332
 21
572.9617496919979658
 31
0.0
  0
LINE
  5
5D7C
  8
0
 62
     7
 10
1960.4134924872100783
 20
558.2617496919975792
 30
0.0
 11
1960.4134924872100783
 21
533.6617496919980113
 31
0.0
  0
LINE
  5
5D7D
  8
0
 62
     7
 10
2015.9134924872109877
 20
587.6617496919975565
 30
0.0
 11
1960.4134924872100783
 21
587.6617496919975565
 31
0.0
  0
LINE
  5
5D7E
  8
0
 62
     7
 10
2015.9134924872109877
 20
558.2617496919975792
 30
0.0
 11
1960.4134924872100783
 21
558.2617496919975792
 31
0.0
  0
LINE
  5
5D7F
  8
0
 62
     7
 10
2015.9134924872109877
 20
558.2617496919975792
 30
0.0
 11
2015.9134924872109877
 21
587.6617496919975565
 31
0.0
  0
LINE
  5
5D80
  8
0
 62
     7
 10
1960.4134924872100783
 20
587.6617496919975565
 30
0.0
 11
1960.4134924872100783
 21
612.2617496919972382
 31
0.0
  0
LINE
  5
5D81
  8
0
 62
     7
 10
1960.4134924872100783
 20
612.2617496919972382
 30
0.0
 11
1921.1134924872110332
 21
572.9617496919979658
 31
0.0
  0
TEXT
  5
5F1D
  8
0
 62
     7
 10
4651.679314330384841
 20
590.0488749789451504
 30
0.0
 40
24.0
  1
available on request
  7
TITLE3
  0
TEXT
  5
5F1E
  8
0
 62
     7
 10
4651.679314330384841
 20
631.1917321218022607
 30
0.0
 40
24.0
  1
Certified dimensions
  7
TITLE3
  0
TEXT
  5
5F1F
  8
0
 62
     7
 10
4651.679314330384841
 20
672.3345892646593711
 30
0.0
 40
24.0
  1
without notice or obligation.
  7
TITLE3
  0
TEXT
  5
5F20
  8
0
 62
     7
 10
4651.679314330384841
 20
713.4774464075164815
 30
0.0
 40
24.0
  1
specifications at any time
  7
TITLE3
  0
TEXT
  5
5F21
  8
0
 62
     7
 10
4651.679314330384841
 20
754.6203035503737055
 30
0.0
 40
24.0
  1
the right to change 
  7
TITLE3
  0
TEXT
  5
5F22
  8
0
 62
     7
 10
4651.679314330384841
 20
836.9060178360879263
 30
0.0
 40
24.0
  1
NOTE
  7
TITLE3
  0
TEXT
  5
5F23
  8
0
 62
     7
 10
4651.679314330384841
 20
795.7631606932307022
 30
0.0
 40
24.0
  1
The manufacturer reserves
  7
TITLE3
  0
LINE
  5
5F74
  8
0
 62
     7
 10
1071.5360143388820688
 20
2060.1305085760282054
 30
0.0
 11
1190.5360143388820688
 21
2060.1305085760282054
 31
0.0
  0
LINE
  5
5F76
  8
0
 62
     7
 10
1071.5360143388820688
 20
3260.1305085760282054
 30
0.0
 11
1071.5360143388820688
 21
3252.1305085760282054
 31
0.0
  0
LINE
  5
5F77
  8
0
 62
     7
 10
1190.5360143388820688
 20
3260.1305085760282054
 30
0.0
 11
1190.5360143388820688
 21
3252.1305085760282054
 31
0.0
  0
LINE
  5
5F79
  8
0
 62
     7
 10
1796.5360143388820688
 20
3260.1305085760291149
 30
0.0
 11
1796.5360143388820688
 21
3252.1305085760309339
 31
0.0
  0
LINE
  5
5F7A
  8
0
 62
     7
 10
1915.5360143388820688
 20
3260.1305085760291149
 30
0.0
 11
1915.5360143388820688
 21
3252.1305085760309339
 31
0.0
  0
LINE
  5
5F7B
  8
0
 62
     7
 10
1796.5360143388820688
 20
2060.1305085760282054
 30
0.0
 11
1915.5360143388820688
 21
2060.1305085760282054
 31
0.0
  0
LINE
  5
5F7C
  8
0
 62
     7
 10
1071.5360143388820688
 20
3260.1305085760282054
 30
0.0
 11
1190.5360143388820688
 21
3260.1305085760282054
 31
0.0
  0
LINE
  5
5F7D
  8
0
 62
     7
 10
1796.5360143388820688
 20
3260.1305085760291149
 30
0.0
 11
1915.5360143388820688
 21
3260.1305085760291149
 31
0.0
  0
LINE
  5
5F7E
  8
0
 62
     7
 10
1915.5360143388820688
 20
2069.1305085760291149
 30
0.0
 11
1915.5360143388820688
 21
2060.1305085760282054
 31
0.0
  0
LINE
  5
5F7F
  8
0
 62
     7
 10
1796.5360143388820688
 20
2069.1305085760291149
 30
0.0
 11
1796.5360143388820688
 21
2060.1305085760282054
 31
0.0
  0
LINE
  5
5F80
  8
0
 62
     7
 10
1190.5360143388820688
 20
2069.1305085760282054
 30
0.0
 11
1190.5360143388820688
 21
2060.1305085760282054
 31
0.0
  0
LINE
  5
5F81
  8
0
 62
     7
 10
1071.5360143388800225
 20
2069.1305085760291149
 30
0.0
 11
1071.5360143388820688
 21
2060.1305085760282054
 31
0.0
  0
LINE
  5
5F95
  8
0
  6
PHANTOM2
 62
     7
 10
940.9254563016090742
 20
2023.4095512630519806
 30
0.0
 11
940.9254563016090742
 21
1569.1305085760279781
 31
0.0
  0
LINE
  5
5F96
  8
0
 62
     7
 10
1071.5360143388820688
 20
297.9667511965835729
 30
0.0
 11
1190.5360143388820688
 21
297.9667511965835729
 31
0.0
  0
LINE
  5
5F97
  8
0
 62
     7
 10
1796.5360143388820688
 20
297.9667511965835729
 30
0.0
 11
1915.5360143388820688
 21
297.9667511965835729
 31
0.0
  0
LINE
  5
5F98
  8
0
 62
     7
 10
1915.5360143388820688
 20
329.9667511965836866
 30
0.0
 11
1915.5360143388820688
 21
297.9667511965835729
 31
0.0
  0
LINE
  5
5F99
  8
0
 62
     7
 10
1796.5360143388820688
 20
329.9667511965836866
 30
0.0
 11
1796.5360143388820688
 21
297.9667511965835729
 31
0.0
  0
LINE
  5
5F9A
  8
0
 62
     7
 10
1190.5360143388820688
 20
329.9667511965836866
 30
0.0
 11
1190.5360143388820688
 21
297.9667511965835729
 31
0.0
  0
LINE
  5
5F9B
  8
0
 62
     7
 10
1071.5360143388800225
 20
329.9667511965836866
 30
0.0
 11
1071.5360143388820688
 21
297.9667511965835729
 31
0.0
  0
LINE
  5
5FB0
  8
0
 62
     7
 10
1131.0360143388820688
 20
287.9667511965838003
 30
0.0
 11
1131.0360143388820688
 21
307.9667511965835729
 31
0.0
  0
LINE
  5
5FB3
  8
0
 62
     7
 10
1856.0360143388820688
 20
287.9667511965838003
 30
0.0
 11
1856.0360143388820688
 21
307.9667511965835729
 31
0.0
  0
LINE
  5
5FE3
  8
0
 62
     7
 10
2507.8614842713909638
 20
1258.9696532723289693
 30
0.0
 11
3692.6622255650390798
 21
1258.9696532723289693
 31
0.0
  0
LINE
  5
5FE6
  8
0
 62
     7
 10
2507.8614842713909638
 20
1258.9696532723289693
 30
0.0
 11
2507.8614842713909638
 21
329.9667511965836866
 31
0.0
  0
LINE
  5
5FE7
  8
0
 62
     7
 10
3692.6622255650390798
 20
1258.9696532723289693
 30
0.0
 11
3692.6622255650390798
 21
329.9667511965836866
 31
0.0
  0
LINE
  5
5FE8
  8
0
 62
     7
 10
2500.6622255650390798
 20
329.9667511965836866
 30
0.0
 11
3700.6622255650358966
 21
329.9667511965836866
 31
0.0
  0
LINE
  5
5FE9
  8
0
 62
     7
 10
2500.6622255650390798
 20
329.9667511965836866
 30
0.0
 11
2500.6622255650390798
 21
297.9667511965835729
 31
0.0
  0
LINE
  5
5FEA
  8
0
 62
     7
 10
3700.6622255650358966
 20
329.9667511965836866
 30
0.0
 11
3700.6622255650381703
 21
297.966751196583914
 31
0.0
  0
LINE
  5
5FEB
  8
0
 62
     7
 10
2500.6622255650390798
 20
297.9667511965835729
 30
0.0
 11
3700.6622255650381703
 21
297.966751196583914
 31
0.0
  0
LINE
  5
5FEC
  8
0
 62
     7
 10
2521.6622255650399893
 20
307.9667511965835729
 30
0.0
 11
2521.6622255650399893
 21
287.9667511965838003
 31
0.0
  0
LINE
  5
6185
  8
0
  6
HIDDEN2
 62
     7
 10
1021.3407773837479908
 20
2952.2694502124168139
 30
0.0
 11
1021.3407773837479908
 21
2427.2694502124209066
 31
0.0
  0
LINE
  5
6186
  8
0
  6
HIDDEN2
 62
     7
 10
966.3407773837484456
 20
2952.2694502124168139
 30
0.0
 11
966.3407773837484456
 21
2427.2694502124168139
 31
0.0
  0
ARC
  5
6187
  8
0
  6
HIDDEN2
 62
     7
 10
1221.3407773837470813
 20
2952.2694502124159044
 30
0.0
 40
255.0
 50
90.0
 51
180.0
  0
ARC
  5
6188
  8
0
  6
HIDDEN2
 62
     7
 10
1221.3407773837470813
 20
2952.2694502124159044
 30
0.0
 40
200.0
 50
90.0
 51
180.0
  0
LINE
  5
6189
  8
0
  6
HIDDEN2
 62
     7
 10
1531.3407773837470813
 20
3152.2694502124168139
 30
0.0
 11
1221.3407773837489003
 21
3152.2694502124168139
 31
0.0
  0
LINE
  5
618A
  8
0
  6
HIDDEN2
 62
     7
 10
1221.3407773837489003
 20
3207.2694502124190876
 30
0.0
 11
1532.5407773837480363
 21
3207.2694502124190876
 31
0.0
  0
LINE
  5
618B
  8
0
  6
HIDDEN2
 62
     7
 10
1532.5407773837459899
 20
3152.2694502124168139
 30
0.0
 11
1532.5407773837480363
 21
3207.2694502124190876
 31
0.0
  0
LINE
  5
618C
  8
0
  6
HIDDEN
 62
     7
 10
1532.5407773837459899
 20
3152.2694502124168139
 30
0.0
 11
1531.3407773837470813
 21
3152.2694502124168139
 31
0.0
  0
LINE
  5
618D
  8
0
  6
HIDDEN
 62
     7
 10
993.8407773837507193
 20
2427.2694502124168139
 30
0.0
 11
966.3407773837484456
 21
2427.2694502124168139
 31
0.0
  0
LINE
  5
618E
  8
0
  6
HIDDEN2
 62
     7
 10
1022.5407773837509922
 20
2427.2694502124168139
 30
0.0
 11
990.3407773837484456
 21
2427.2694502124168139
 31
0.0
  0
TEXT
  5
61A9
  8
0
 62
     7
 10
2803.8371172261090578
 20
543.2796259641977485
 30
0.0
 40
62.9999999984249968
  1
OPA161RKTYH
  7
TITLE5
 72
     1
 11
3120.3371172181969087
 21
543.2796259641977485
 31
0.0
  0
LINE
  5
6409
  8
0
 62
     7
 10
2500.6622255650390798
 20
356.6334178632505996
 30
0.0
 11
2500.6622255650390798
 21
398.0819839208247117
 31
0.0
  0
LINE
  5
640A
  8
0
 62
     7
 10
2512.5568651583507744
 20
357.1158577954693101
 30
0.0
 11
2512.5568651583507744
 21
398.5644238530434222
 31
0.0
  0
LINE
  5
640B
  8
0
 62
     7
 10
2460.6622255650399893
 20
371.4153172541576851
 30
0.0
 11
2420.6622255650390798
 21
371.4153172541576851
 31
0.0
  0
LINE
  5
640C
  8
0
 62
     7
 10
2552.5568651583507744
 20
371.8977571863763956
 30
0.0
 11
2592.5568651583507744
 21
371.8977571863763956
 31
0.0
  0
SOLID
  5
640D
  8
0
 62
     7
 10
2460.6622255650399893
 20
378.0819839208247117
 30
0.0
 11
2460.6622255650399893
 21
364.7486505874907721
 31
0.0
 12
2500.6622255650390798
 22
371.4153172541576851
 32
0.0
 13
2500.6622255650390798
 23
371.4153172541576851
 33
0.0
  0
SOLID
  5
640E
  8
0
 62
     7
 10
2552.5568651583507744
 20
378.5644238530434222
 30
0.0
 11
2552.5568651583507744
 21
365.2310905197094826
 31
0.0
 12
2512.5568651583507744
 22
371.8977571863763956
 32
0.0
 13
2512.5568651583507744
 23
371.8977571863763956
 33
0.0
  0
TEXT
  5
6460
  8
0
 62
     7
 10
2386.4539540879541164
 20
356.4153172541577987
 30
0.0
 40
30.0
  1
9
  0
LINE
  5
64A9
  8
0
 62
     7
 10
3692.6622255650390798
 20
1258.9696532723289693
 30
0.0
 11
3692.6622255650390798
 21
329.9667511965836866
 31
0.0
  0
LINE
  5
64AA
  8
0
 62
     7
 10
2587.6622255650381703
 20
765.9667511965833455
 30
0.0
 11
2587.6622255650381703
 21
423.966751196583175
 31
0.0
  0
LINE
  5
64AC
  8
0
 62
     7
 10
2669.7083896829058176
 20
1179.9667511965828908
 30
0.0
 11
2669.7083896829058176
 21
954.9667511965832318
 31
0.0
  0
LINE
  5
64AD
  8
0
 62
     7
 10
3692.6622255650390798
 20
1258.9696532723289693
 30
0.0
 11
3692.6622255650390798
 21
329.9667511965836866
 31
0.0
  0
LINE
  5
64AE
  8
0
 62
     7
 10
3530.3045183411700236
 20
1179.9667511965840276
 30
0.0
 11
3530.3045183411700236
 21
954.9667511965823223
 31
0.0
  0
LINE
  5
64AF
  8
0
 62
     7
 10
3649.6622255650399893
 20
765.9667511965833455
 30
0.0
 11
3649.6622255650399893
 21
423.966751196583175
 31
0.0
  0
LINE
  5
64B8
  8
0
 62
     7
 10
2045.5360143388820688
 20
2147.1305085760282054
 30
0.0
 11
2103.5360143388797951
 21
2147.1305085760282054
 31
0.0
  0
LINE
  5
64B9
  8
0
 62
     7
 10
2045.5360143388820688
 20
3209.1305085760268412
 30
0.0
 11
2103.5360143388797951
 21
3209.1305085760268412
 31
0.0
  0
LINE
  5
64BA
  8
0
 62
     7
 10
2045.5360143388820688
 20
2231.1305085760282054
 30
0.0
 11
2103.5360143388797951
 21
2231.1305085760282054
 31
0.0
  0
LINE
  5
64BB
  8
0
 62
     7
 10
2045.5360143388820688
 20
3091.1305085760291149
 30
0.0
 11
2103.5360143388797951
 21
3091.1305085760291149
 31
0.0
  0
LINE
  5
6CC4
  8
0
 62
     7
 10
2043.204914264719946
 20
423.9667511965831181
 30
0.0
 11
2103.4722123372939677
 21
423.966751196583175
 31
0.0
  0
LINE
  5
6CC7
  8
0
 62
     7
 10
2043.204914264719946
 20
765.9667511965833455
 30
0.0
 11
2103.4722123372930582
 21
765.9667511965833455
 31
0.0
  0
LINE
  5
6CC8
  8
0
 62
     7
 10
2043.204914264719946
 20
973.0715281194648014
 30
0.0
 11
2103.5393400537459456
 21
973.0715281194649151
 31
0.0
  0
LINE
  5
6CC9
  8
0
 62
     7
 10
2043.2049142647190365
 20
1198.0715281194638919
 30
0.0
 11
2103.5393400537459456
 21
1198.0715281194638919
 31
0.0
  0
LINE
  5
6CCA
  8
0
 62
     7
 10
2669.7083896829058176
 20
1179.9667511965828908
 30
0.0
 11
3530.3045183411709331
 21
1179.9667511965828908
 31
0.0
  0
LINE
  5
6CCB
  8
0
 62
     7
 10
2669.7083896829058176
 20
954.9667511965832318
 30
0.0
 11
3530.3045183411709331
 21
954.9667511965823223
 31
0.0
  0
LINE
  5
6CCC
  8
0
 62
     7
 10
2587.6622255650381703
 20
765.9667511965833455
 30
0.0
 11
3649.6622255650399893
 21
765.9667511965833455
 31
0.0
  0
LINE
  5
6CCD
  8
0
 62
     7
 10
2587.6622255650381703
 20
423.966751196583175
 30
0.0
 11
3649.6622255650399893
 21
423.966751196583175
 31
0.0
  0
TEXT
  5
6CF7
  8
0
 62
     7
 10
1136.7315167560700502
 20
2724.2220422591258284
 30
0.0
 40
62.9999999984249968
  1
161RKTYH
  7
TITLE5
 72
     1
 11
1355.7315167505948921
 21
2724.2220422591258284
 31
0.0
  0
LINE
  5
6E85
  8
0
 62
     7
 10
1012.8693476722130526
 20
1365.9667511965828908
 30
0.0
 11
801.5208440713553273
 21
1365.9667511965828908
 31
0.0
  0
LINE
  5
6E86
  8
0
 62
     7
 10
1044.869347672215099
 20
297.9667511965835729
 30
0.0
 11
801.5208440713553273
 21
297.9667511965835729
 31
0.0
  0
LINE
  5
6E87
  8
0
 62
     7
 10
828.1875107380220697
 20
1325.9667511965828908
 30
0.0
 11
828.1875107380217287
 21
910.9672134996284285
 31
0.0
  0
LINE
  5
6E88
  8
0
 62
     7
 10
828.1875107380217287
 20
337.9667511965836866
 30
0.0
 11
828.1875107380217287
 21
661.8015355677891876
 31
0.0
  0
SOLID
  5
6E89
  8
0
 62
     7
 10
821.5208440713555547
 20
1325.9667511965828908
 30
0.0
 11
834.8541774046886985
 21
1325.9667511965828908
 31
0.0
 12
828.1875107380220697
 22
1365.9667511965828908
 32
0.0
 13
828.1875107380220697
 23
1365.9667511965828908
 33
0.0
  0
SOLID
  5
6E8A
  8
0
 62
     7
 10
821.5208440713550999
 20
337.9667511965836866
 30
0.0
 11
834.8541774046883575
 21
337.9667511965835729
 31
0.0
 12
828.1875107380217287
 22
297.9667511965835729
 32
0.0
 13
828.1875107380217287
 23
297.9667511965835729
 33
0.0
  0
LINE
  5
6E8C
  8
0
 62
     7
 10
1131.0360143388820688
 20
261.3000845299172852
 30
0.0
 11
1131.0360143388820688
 21
213.7915834960695918
 31
0.0
  0
LINE
  5
6E8D
  8
0
 62
     7
 10
941.5360143388816141
 20
303.3000845299171147
 30
0.0
 11
941.5360143388816141
 21
213.7915834960695918
 31
0.0
  0
LINE
  5
6E8E
  8
0
 62
     7
 10
1171.0360143388820688
 20
240.4582501627363058
 30
0.0
 11
1211.0360143388820688
 21
240.4582501627363058
 31
0.0
  0
LINE
  5
6E8F
  8
0
 62
     7
 10
901.5360143388816141
 20
240.4582501627363058
 30
0.0
 11
861.5360143388818415
 21
240.4582501627363058
 31
0.0
  0
SOLID
  5
6E90
  8
0
 62
     7
 10
1171.0360143388820688
 20
247.1249168294029062
 30
0.0
 11
1171.0360143388820688
 21
233.7915834960695918
 31
0.0
 12
1131.0360143388820688
 22
240.4582501627363058
 32
0.0
 13
1131.0360143388820688
 23
240.4582501627363058
 33
0.0
  0
SOLID
  5
6E91
  8
0
 62
     7
 10
901.5360143388816141
 20
247.1249168294029062
 30
0.0
 11
901.5360143388816141
 21
233.7915834960695918
 31
0.0
 12
941.5360143388816141
 22
240.4582501627363058
 32
0.0
 13
941.5360143388816141
 23
240.4582501627363058
 33
0.0
  0
LINE
  5
6E93
  8
0
 62
     7
 10
1131.0360143388820688
 20
261.3000845299172852
 30
0.0
 11
1131.0360143388820688
 21
213.7915834960695918
 31
0.0
  0
LINE
  5
6E94
  8
0
 62
     7
 10
1856.0360143388820688
 20
261.3000845299172852
 30
0.0
 11
1856.0360143388820688
 21
213.7915834960695918
 31
0.0
  0
LINE
  5
6E95
  8
0
 62
     7
 10
1171.0360143388820688
 20
240.4582501627363058
 30
0.0
 11
1351.869347672215099
 21
240.4582501627363058
 31
0.0
  0
LINE
  5
6E96
  8
0
 62
     7
 10
1816.0360143388820688
 20
240.4582501627363058
 30
0.0
 11
1635.2026810055490387
 21
240.4582501627363058
 31
0.0
  0
SOLID
  5
6E97
  8
0
 62
     7
 10
1171.0360143388820688
 20
247.1249168294029062
 30
0.0
 11
1171.0360143388820688
 21
233.7915834960695918
 31
0.0
 12
1131.0360143388820688
 22
240.4582501627363058
 32
0.0
 13
1131.0360143388820688
 23
240.4582501627363058
 33
0.0
  0
SOLID
  5
6E98
  8
0
 62
     7
 10
1816.0360143388820688
 20
247.1249168294029062
 30
0.0
 11
1816.0360143388820688
 21
233.7915834960695918
 31
0.0
 12
1856.0360143388820688
 22
240.4582501627363058
 32
0.0
 13
1856.0360143388820688
 23
240.4582501627363058
 33
0.0
  0
LINE
  5
6E9A
  8
0
 62
     7
 10
941.5360143388816141
 20
1285.6363199389938927
 30
0.0
 11
941.5360143388816141
 21
1519.2487192788389621
 31
0.0
  0
LINE
  5
6E9B
  8
0
 62
     7
 10
2103.5393400537459456
 20
1206.633417863250088
 30
0.0
 11
2103.5393400537459456
 21
1519.2487192788389621
 31
0.0
  0
LINE
  5
6E9C
  8
0
 62
     7
 10
981.5360143388817278
 20
1492.5820526121719922
 30
0.0
 11
1390.8710105296470374
 21
1492.5820526121719922
 31
0.0
  0
LINE
  5
6E9D
  8
0
 62
     7
 10
2063.5393400537459456
 20
1492.5820526121719922
 30
0.0
 11
1654.2043438629800676
 21
1492.5820526121719922
 31
0.0
  0
SOLID
  5
6E9E
  8
0
 62
     7
 10
981.5360143388817278
 20
1499.2487192788389621
 30
0.0
 11
981.5360143388817278
 21
1485.9153859455050224
 31
0.0
 12
941.5360143388816141
 22
1492.5820526121719922
 32
0.0
 13
941.5360143388816141
 23
1492.5820526121719922
 33
0.0
  0
SOLID
  5
6E9F
  8
0
 62
     7
 10
2063.5393400537459456
 20
1499.2487192788389621
 30
0.0
 11
2063.5393400537459456
 21
1485.9153859455050224
 31
0.0
 12
2103.5393400537459456
 22
1492.5820526121719922
 32
0.0
 13
2103.5393400537459456
 23
1492.5820526121719922
 33
0.0
  0
LINE
  5
6EA1
  8
0
 62
     7
 10
2045.5322123372920942
 20
1285.6363199389950296
 30
0.0
 11
2045.5322123372920942
 21
1447.6474914563330003
 31
0.0
  0
LINE
  5
6EA2
  8
0
 62
     7
 10
941.5360143388816141
 20
1285.6363199389938927
 30
0.0
 11
941.5360143388816141
 21
1447.6474914563330003
 31
0.0
  0
LINE
  5
6EA3
  8
0
 62
     7
 10
2005.5322123372920942
 20
1420.98082478966694
 30
0.0
 11
1562.7007800047529145
 21
1420.98082478966694
 31
0.0
  0
LINE
  5
6EA4
  8
0
 62
     7
 10
981.5360143388817278
 20
1420.98082478966694
 30
0.0
 11
1424.3674466714201117
 21
1420.98082478966694
 31
0.0
  0
SOLID
  5
6EA5
  8
0
 62
     7
 10
2005.5322123372920942
 20
1427.6474914563339098
 30
0.0
 11
2005.5322123372920942
 21
1414.3141581229999701
 31
0.0
 12
2045.5322123372920942
 22
1420.98082478966694
 32
0.0
 13
2045.5322123372920942
 23
1420.98082478966694
 33
0.0
  0
SOLID
  5
6EA6
  8
0
 62
     7
 10
981.5360143388817278
 20
1427.6474914563339098
 30
0.0
 11
981.5360143388817278
 21
1414.3141581229999701
 31
0.0
 12
941.5360143388816141
 22
1420.98082478966694
 32
0.0
 13
941.5360143388816141
 23
1420.98082478966694
 33
0.0
  0
LINE
  5
6EA8
  8
0
 62
     7
 10
2130.1388790039609376
 20
423.966751196583175
 30
0.0
 11
2215.8976134899730823
 21
423.966751196583175
 31
0.0
  0
LINE
  5
6EA9
  8
0
 62
     7
 10
1942.2026810055490387
 20
297.9667511965835729
 30
0.0
 11
2215.8976134899730823
 21
297.966751196583516
 31
0.0
  0
LINE
  5
6EAA
  8
0
 62
     7
 10
2189.230946823307022
 20
463.9667511965834024
 30
0.0
 11
2189.230946823307022
 21
503.9667511965831181
 31
0.0
  0
LINE
  5
6EAB
  8
0
 62
     7
 10
2189.230946823307022
 20
257.966751196583516
 30
0.0
 11
2189.230946823307022
 21
217.9667511965834876
 31
0.0
  0
SOLID
  5
6EAC
  8
0
 62
     7
 10
2182.5642801566409616
 20
463.9667511965834024
 30
0.0
 11
2195.8976134899730823
 21
463.9667511965834024
 31
0.0
 12
2189.230946823307022
 22
423.966751196583175
 32
0.0
 13
2189.230946823307022
 23
423.966751196583175
 33
0.0
  0
SOLID
  5
6EAD
  8
0
 62
     7
 10
2182.5642801566409616
 20
257.966751196583516
 30
0.0
 11
2195.8976134899730823
 21
257.966751196583516
 31
0.0
 12
2189.230946823307022
 22
297.966751196583516
 32
0.0
 13
2189.230946823307022
 23
297.966751196583516
 33
0.0
  0
LINE
  5
6EAF
  8
0
 62
     7
 10
2130.1388790039591186
 20
765.9667511965833455
 30
0.0
 11
2215.9365769749661013
 21
765.9667511965833455
 31
0.0
  0
LINE
  5
6EB0
  8
0
 62
     7
 10
2130.1388790039609376
 20
423.966751196583175
 30
0.0
 11
2215.9365769749661013
 21
423.966751196583175
 31
0.0
  0
LINE
  5
6EB1
  8
0
 62
     7
 10
2189.2699103083000409
 20
725.9667511965833455
 30
0.0
 11
2189.2699103083000409
 21
661.6334178632498606
 31
0.0
  0
LINE
  5
6EB2
  8
0
 62
     7
 10
2189.2699103083000409
 20
463.9667511965834024
 30
0.0
 11
2189.2699103083000409
 21
528.3000845299168304
 31
0.0
  0
SOLID
  5
6EB3
  8
0
 62
     7
 10
2182.6032436416330711
 20
725.9667511965833455
 30
0.0
 11
2195.9365769749670108
 21
725.9667511965833455
 31
0.0
 12
2189.2699103083000409
 22
765.9667511965833455
 32
0.0
 13
2189.2699103083000409
 23
765.9667511965833455
 33
0.0
  0
SOLID
  5
6EB4
  8
0
 62
     7
 10
2182.6032436416330711
 20
463.9667511965834024
 30
0.0
 11
2195.9365769749670108
 21
463.9667511965834024
 31
0.0
 12
2189.2699103083000409
 22
423.966751196583175
 32
0.0
 13
2189.2699103083000409
 23
423.966751196583175
 33
0.0
  0
LINE
  5
6EB6
  8
0
 62
     7
 10
2130.206006720412006
 20
973.0715281194649151
 30
0.0
 11
2215.9433635865630094
 21
973.0715281194649151
 31
0.0
  0
LINE
  5
6EB7
  8
0
 62
     7
 10
2130.206006720412006
 20
1198.0715281194638919
 30
0.0
 11
2215.9433635865630094
 21
1198.0715281194638919
 31
0.0
  0
LINE
  5
6EB8
  8
0
 62
     7
 10
2189.2766969198969491
 20
1013.0715281194650288
 30
0.0
 11
2189.2766969198969491
 21
1034.3207013781729984
 31
0.0
  0
SOLID
  5
6EBA
  8
0
 62
     7
 10
2182.6100302532299793
 20
1013.0715281194650288
 30
0.0
 11
2195.9433635865630094
 21
1013.0715281194650288
 31
0.0
 12
2189.2766969198969491
 22
973.0715281194649151
 32
0.0
 13
2189.2766969198969491
 23
973.0715281194649151
 33
0.0
  0
SOLID
  5
6EBB
  8
0
 62
     7
 10
2182.6100302532299793
 20
1158.0715281194638919
 30
0.0
 11
2195.9433635865630094
 21
1158.0715281194638919
 31
0.0
 12
2189.2766969198969491
 22
1198.0715281194638919
 32
0.0
 13
2189.2766969198969491
 23
1198.0715281194638919
 33
0.0
  0
LINE
  5
6EBF
  8
0
 62
     7
 10
2189.2766969198969491
 20
1134.3207013781729984
 30
0.0
 11
2189.2766969198969491
 21
1158.0715281194638919
 31
0.0
  0
LINE
  5
6F33
  8
0
 62
     7
 10
2521.6622255650399893
 20
261.3000845299172852
 30
0.0
 11
2521.6622255650399893
 21
214.7592050169569973
 31
0.0
  0
LINE
  5
6F34
  8
0
 62
     7
 10
2500.6622255650390798
 20
271.3000845299168873
 30
0.0
 11
2500.6622255650390798
 21
214.7592050169569973
 31
0.0
  0
LINE
  5
6F35
  8
0
 62
     7
 10
2561.6622255650390798
 20
241.4258716836235976
 30
0.0
 11
2601.6622255650390798
 21
241.4258716836235976
 31
0.0
  0
LINE
  5
6F36
  8
0
 62
     7
 10
2460.6622255650399893
 20
241.4258716836235976
 30
0.0
 11
2420.6622255650390798
 21
241.4258716836235976
 31
0.0
  0
SOLID
  5
6F37
  8
0
 62
     7
 10
2561.6622255650390798
 20
248.0925383502903117
 30
0.0
 11
2561.6622255650390798
 21
234.7592050169569973
 31
0.0
 12
2521.6622255650399893
 22
241.4258716836235976
 32
0.0
 13
2521.6622255650399893
 23
241.4258716836235976
 33
0.0
  0
SOLID
  5
6F38
  8
0
 62
     7
 10
2460.6622255650399893
 20
248.0925383502903117
 30
0.0
 11
2460.6622255650399893
 21
234.7592050169569973
 31
0.0
 12
2500.6622255650390798
 22
241.4258716836235976
 32
0.0
 13
2500.6622255650390798
 23
241.4258716836235976
 33
0.0
  0
LINE
  5
6F3A
  8
0
 62
     7
 10
2521.6622255650399893
 20
261.3000845299172852
 30
0.0
 11
2521.6622255650399893
 21
215.0111502919762927
 31
0.0
  0
LINE
  5
6F3B
  8
0
 62
     7
 10
3675.6622255650390798
 20
261.3000845299172852
 30
0.0
 11
3675.6622255650390798
 21
215.0111502919762927
 31
0.0
  0
LINE
  5
6F3C
  8
0
 62
     7
 10
2548.6622255650390798
 20
241.6778169586430067
 30
0.0
 11
2954.49555889837211
 21
241.6778169586430067
 31
0.0
  0
LINE
  5
6F3D
  8
0
 62
     7
 10
3653.6622255650390798
 20
241.6778169586430067
 30
0.0
 11
3247.8288922317060496
 21
241.6778169586430067
 31
0.0
  0
SOLID
  5
6F3E
  8
0
 62
     7
 10
2561.6622255650390798
 20
248.3444836253096071
 30
0.0
 11
2561.6622255650390798
 21
235.0111502919762927
 31
0.0
 12
2521.6622255650399893
 22
241.6778169586430067
 32
0.0
 13
2521.6622255650399893
 23
241.6778169586430067
 33
0.0
  0
SOLID
  5
6F3F
  8
0
 62
     7
 10
3635.6622255650390798
 20
248.3444836253096071
 30
0.0
 11
3635.6622255650390798
 21
235.0111502919762927
 31
0.0
 12
3675.6622255650390798
 22
241.6778169586430067
 32
0.0
 13
3675.6622255650390798
 23
241.6778169586430067
 33
0.0
  0
LINE
  5
6F41
  8
0
 62
     7
 10
3700.6622255650381703
 20
271.3000845299172852
 30
0.0
 11
3700.6622255650381703
 21
151.5543388433862049
 31
0.0
  0
LINE
  5
6F42
  8
0
 62
     7
 10
2500.6622255650390798
 20
271.3000845299168873
 30
0.0
 11
2500.6622255650390798
 21
151.5543388433862049
 31
0.0
  0
LINE
  5
6F43
  8
0
 62
     7
 10
3660.6622255650390798
 20
178.2210055100528052
 30
0.0
 11
3232.3288922317060496
 21
178.2210055100528052
 31
0.0
  0
LINE
  5
6F44
  8
0
 62
     7
 10
2540.6622255650390798
 20
178.2210055100528052
 30
0.0
 11
2968.99555889837211
 21
178.2210055100528052
 31
0.0
  0
SOLID
  5
6F45
  8
0
 62
     7
 10
3660.6622255650390798
 20
184.8876721767194056
 30
0.0
 11
3660.6622255650390798
 21
171.5543388433862049
 31
0.0
 12
3700.6622255650381703
 22
178.2210055100528052
 32
0.0
 13
3700.6622255650381703
 23
178.2210055100528052
 33
0.0
  0
SOLID
  5
6F46
  8
0
 62
     7
 10
2540.6622255650390798
 20
184.8876721767194056
 30
0.0
 11
2540.6622255650390798
 21
171.5543388433862049
 31
0.0
 12
2500.6622255650390798
 22
178.2210055100528052
 32
0.0
 13
2500.6622255650390798
 23
178.2210055100528052
 33
0.0
  0
LINE
  5
6F48
  8
0
 62
     7
 10
2587.6622255650381703
 20
776.633417863250088
 30
0.0
 11
2587.6622255650381703
 21
1448.0236675932490016
 31
0.0
  0
LINE
  5
6F49
  8
0
 62
     7
 10
2509.6622255650390798
 20
1285.6363199389950296
 30
0.0
 11
2509.6622255650390798
 21
1448.0236675932490016
 31
0.0
  0
LINE
  5
6F4B
  8
0
 62
     7
 10
2469.6622255650399893
 20
1423.4720773632809596
 30
0.0
 11
2429.6622255650390798
 21
1423.4720773632809596
 31
0.0
  0
SOLID
  5
6F4D
  8
0
 62
     7
 10
2469.6622255650399893
 20
1430.1387440299479294
 30
0.0
 11
2469.6622255650399893
 21
1416.8054106966139898
 31
0.0
 12
2509.6622255650390798
 22
1423.4720773632809596
 32
0.0
 13
2509.6622255650390798
 23
1423.4720773632809596
 33
0.0
  0
LINE
  5
6F56
  8
0
 62
     7
 10
2587.6622255650381703
 20
776.633417863250088
 30
0.0
 11
2587.6622255650381703
 21
1450.1387440299479294
 31
0.0
  0
LINE
  5
6F57
  8
0
 62
     7
 10
3649.6622255650399893
 20
776.633417863250088
 30
0.0
 11
3649.6622255650399893
 21
1450.1387440299479294
 31
0.0
  0
LINE
  5
6F58
  8
0
 62
     7
 10
2627.6622255650390798
 20
1423.4720773632809596
 30
0.0
 11
3044.4955588983730195
 21
1423.4720773632809596
 31
0.0
  0
LINE
  5
6F59
  8
0
 62
     7
 10
3609.6622255650399893
 20
1423.4720773632809596
 30
0.0
 11
3192.8288922317060496
 21
1423.4720773632809596
 31
0.0
  0
SOLID
  5
6F5A
  8
0
 62
     7
 10
2627.6622255650390798
 20
1430.1387440299479294
 30
0.0
 11
2627.6622255650390798
 21
1416.8054106966139898
 31
0.0
 12
2587.6622255650381703
 22
1423.4720773632809596
 32
0.0
 13
2587.6622255650381703
 23
1423.4720773632809596
 33
0.0
  0
SOLID
  5
6F5B
  8
0
 62
     7
 10
3609.6622255650399893
 20
1430.1387440299479294
 30
0.0
 11
3609.6622255650399893
 21
1416.8054106966139898
 31
0.0
 12
3649.6622255650399893
 22
1423.4720773632809596
 32
0.0
 13
3649.6622255650399893
 23
1423.4720773632809596
 33
0.0
  0
LINE
  5
6F5D
  8
0
 62
     7
 10
2671.6622255650390798
 20
1206.633417863250088
 30
0.0
 11
2671.6622255650390798
 21
1518.2832147459960197
 31
0.0
  0
LINE
  5
6F5E
  8
0
 62
     7
 10
2509.6622255650390798
 20
1285.6363199389950296
 30
0.0
 11
2509.6622255650390798
 21
1518.2832147459960197
 31
0.0
  0
LINE
  5
6F5F
  8
0
 62
     7
 10
2631.6622255650390798
 20
1491.6165480793290499
 30
0.0
 11
2549.6622255650390798
 21
1491.6165480793290499
 31
0.0
  0
LINE
  5
6F60
  8
0
 62
     7
 10
2509.6622255650390798
 20
1491.6165480793290499
 30
0.0
 11
2469.6622255650399893
 21
1491.6165480793290499
 31
0.0
  0
SOLID
  5
6F61
  8
0
 62
     7
 10
2631.6622255650390798
 20
1498.2832147459960197
 30
0.0
 11
2631.6622255650390798
 21
1484.9498814126629895
 31
0.0
 12
2671.6622255650390798
 22
1491.6165480793290499
 32
0.0
 13
2671.6622255650390798
 23
1491.6165480793290499
 33
0.0
  0
SOLID
  5
6F62
  8
0
 62
     7
 10
2549.6622255650390798
 20
1498.2832147459960197
 30
0.0
 11
2549.6622255650390798
 21
1484.9498814126629895
 31
0.0
 12
2509.6622255650390798
 22
1491.6165480793290499
 32
0.0
 13
2509.6622255650390798
 23
1491.6165480793290499
 33
0.0
  0
LINE
  5
6F65
  8
0
 62
     7
 10
3531.6622255650390798
 20
1206.633417863250088
 30
0.0
 11
3531.6622255650390798
 21
1518.2832147459960197
 31
0.0
  0
LINE
  5
6F66
  8
0
 62
     7
 10
2711.6622255650390798
 20
1491.6165480793290499
 30
0.0
 11
3037.4955588983730195
 21
1491.6165480793290499
 31
0.0
  0
LINE
  5
6F67
  8
0
 62
     7
 10
3491.6622255650390798
 20
1491.6165480793290499
 30
0.0
 11
3165.8288922317069591
 21
1491.6165480793290499
 31
0.0
  0
SOLID
  5
6F68
  8
0
 62
     7
 10
2711.6622255650390798
 20
1498.2832147459960197
 30
0.0
 11
2711.6622255650390798
 21
1484.9498814126629895
 31
0.0
 12
2671.6622255650390798
 22
1491.6165480793290499
 32
0.0
 13
2671.6622255650390798
 23
1491.6165480793290499
 33
0.0
  0
SOLID
  5
6F69
  8
0
 62
     7
 10
3491.6622255650390798
 20
1498.2832147459960197
 30
0.0
 11
3491.6622255650390798
 21
1484.9498814126629895
 31
0.0
 12
3531.6622255650390798
 22
1491.6165480793290499
 32
0.0
 13
3531.6622255650390798
 23
1491.6165480793290499
 33
0.0
  0
LINE
  5
6F6B
  8
0
 62
     7
 10
2509.6622255650390798
 20
1285.6363199389950296
 30
0.0
 11
2509.6622255650390798
 21
1571.1044754177460163
 31
0.0
  0
LINE
  5
6F6C
  8
0
 62
     7
 10
3692.6622255650390798
 20
1285.6363199389950296
 30
0.0
 11
3692.6622255650390798
 21
1571.1044754177460163
 31
0.0
  0
LINE
  5
6F6D
  8
0
 62
     7
 10
2549.6622255650390798
 20
1564.4378087510790465
 30
0.0
 11
3029.4955588983730195
 21
1564.4378087510790465
 31
0.0
  0
LINE
  5
6F6E
  8
0
 62
     7
 10
3652.6622255650399893
 20
1564.4378087510790465
 30
0.0
 11
3172.8288922317060496
 21
1564.4378087510790465
 31
0.0
  0
SOLID
  5
6F6F
  8
0
 62
     7
 10
2549.6622255650390798
 20
1571.1044754177460163
 30
0.0
 11
2549.6622255650390798
 21
1557.7711420844120767
 31
0.0
 12
2509.6622255650390798
 22
1564.4378087510790465
 32
0.0
 13
2509.6622255650390798
 23
1564.4378087510790465
 33
0.0
  0
SOLID
  5
6F70
  8
0
 62
     7
 10
3652.6622255650399893
 20
1571.1044754177460163
 30
0.0
 11
3652.6622255650399893
 21
1557.7711420844120767
 31
0.0
 12
3692.6622255650390798
 22
1564.4378087510790465
 32
0.0
 13
3692.6622255650390798
 23
1564.4378087510790465
 33
0.0
  0
TEXT
  5
6FC6
  8
0
 62
     7
 10
3056.1622255650390798
 20
1549.4378087510790465
 30
0.0
 40
30.0
  1
1185
  0
TEXT
  5
6FC7
  8
0
 62
     7
 10
3064.1622255650390798
 20
1476.6165480793290499
 30
0.0
 40
30.0
  1
860
  0
TEXT
  5
6FC8
  8
0
 62
     7
 10
2372.99555889837211
 20
1476.6165480793290499
 30
0.0
 40
30.0
  1
162
  0
TEXT
  5
6FC9
  8
0
 62
     7
 10
3071.1622255650390798
 20
1408.4720773632809596
 30
0.0
 40
30.0
  1
1062
  0
TEXT
  5
6FCA
  8
0
 62
     7
 10
2352.99555889837211
 20
1408.4720773632809596
 30
0.0
 40
30.0
  1
78
  0
TEXT
  5
6FCB
  8
0
 62
     7
 10
2995.6622255650390798
 20
163.2210055100528905
 30
0.0
 40
30.0
  1
1200 O/A
  0
TEXT
  5
6FCC
  8
0
 62
     7
 10
2981.1622255650390798
 20
226.6778169586430067
 30
0.0
 40
30.0
  1
1154 CTRS
  0
TEXT
  5
6FCD
  8
0
 62
     7
 10
2373.9955588983730195
 20
226.4258716836235976
 30
0.0
 40
30.0
  1
21
  0
TEXT
  5
6FCE
  8
0
 62
     7
 10
2204.2766969198969491
 20
822.6451326430310473
 30
0.0
 40
30.0
  1
208
 50
90.0
  0
TEXT
  5
6FCF
  8
0
 62
     7
 10
2204.2766969198969491
 20
1044.3207013781729984
 30
0.0
 40
30.0
  1
225
 50
90.0
  0
TEXT
  5
6FD0
  8
0
 62
     7
 10
2204.2699103082991314
 20
554.9667511965836866
 30
0.0
 40
30.0
  1
342
 50
90.0
  0
TEXT
  5
6FD1
  8
0
 62
     7
 10
2204.230946823307022
 20
325.466751196583914
 30
0.0
 40
30.0
  1
126
 50
90.0
  0
TEXT
  5
6FD2
  8
0
 62
     7
 10
1451.0341133380870815
 20
1405.9808247896660305
 30
0.0
 40
30.0
  1
1098
  0
TEXT
  5
6FD3
  8
0
 62
     7
 10
1417.5376771963130977
 20
1477.5820526121719922
 30
0.0
 40
30.0
  1
1158 O/A
  0
TEXT
  5
6FD4
  8
0
 62
     7
 10
1378.5360143388820688
 20
225.4582501627361069
 30
0.0
 40
30.0
  1
725 CTRS
  0
TEXT
  5
6FD5
  8
0
 62
     7
 10
981.2860143388817278
 20
225.4582501627361069
 30
0.0
 40
30.0
  1
186
  0
TEXT
  5
6FD6
  8
0
 62
     7
 10
843.1875107380218424
 20
688.4682022344557026
 30
0.0
 40
30.0
  1
1068 O/A
 50
90.0
  0
LINE
  5
72F0
  8
0
  6
PHANTOM2
 10
940.3599028326082134
 20
3281.9928473129471058
 30
0.0
 11
940.3599028326082134
 21
3752.1340965983540627
 31
0.0
  0
LINE
  5
72F3
  8
0
  6
PHANTOM2
 10
941.5360143388787719
 20
3752.1305085760291149
 30
0.0
 11
1748.3599028326079861
 21
3752.1305085760291149
 31
0.0
  0
TEXT
  5
72F4
  8
0
 10
1023.3874330874749603
 20
3689.2593085326288929
 30
0.0
 40
40.0
  1
500 min CLEARANCE
  7
TITLE3
  0
LINE
  5
72F5
  8
0
  6
PHANTOM2
 10
1748.3599028326079861
 20
3281.9928473129471058
 30
0.0
 11
1748.3599028326079861
 21
3752.1305085760291149
 31
0.0
  0
CIRCLE
  5
7990
  8
0
 10
1350.5360143388820688
 20
2784.1305085760291149
 30
0.0
 40
326.0
  0
LINE
  5
7997
  8
0
 62
     7
 10
1024.5360143388800225
 20
1365.9667511965828908
 30
0.0
 11
1676.5360143388800225
 21
1365.9667511965840276
 31
0.0
  0
LINE
  5
7998
  8
0
 10
1024.5360143388800225
 20
1365.9667511965828908
 30
0.0
 11
1024.5360143388800225
 21
1258.9696532723280598
 31
0.0
  0
LINE
  5
7999
  8
0
 10
1676.5360143388800225
 20
1365.9667511965840276
 30
0.0
 11
1676.5360143388800225
 21
1258.9696532723280598
 31
0.0
  0
LINE
  5
799C
  8
0
 62
     7
 10
2898.6622255650399893
 20
1365.9667511965828908
 30
0.0
 11
3550.6622255650399893
 21
1365.9667511965840276
 31
0.0
  0
LINE
  5
799D
  8
0
 10
3550.6622255650399893
 20
1365.9667511965840276
 30
0.0
 11
3550.6622255650399893
 21
1258.9696532723280598
 31
0.0
  0
LINE
  5
799E
  8
0
 10
2898.6622255650399893
 20
1365.9667511965828908
 30
0.0
 11
2898.6622255650399893
 21
1258.9696532723280598
 31
0.0
  0
LINE
  5
79AB
  8
0
 62
     7
 10
3675.6622255650390798
 20
307.9667511965835729
 30
0.0
 11
3675.6622255650390798
 21
287.9667511965838003
 31
0.0
  0
LINE
  5
84E9
  8
0
 62
     7
 10
896.560592031930355
 20
1218.9696532723280598
 30
0.0
 11
896.5605920319301276
 21
864.4960976238907051
 31
0.0
  0
LINE
  5
84EA
  8
0
 62
     7
 10
892.5299706302266713
 20
364.4143773814981841
 30
0.0
 11
892.5299706302266713
 21
732.5052267286173446
 31
0.0
  0
SOLID
  5
84EB
  8
0
 62
     7
 10
889.8939253652637262
 20
1218.9696532723280598
 30
0.0
 11
903.2272586985967564
 21
1218.9696532723280598
 31
0.0
 12
896.560592031930355
 22
1258.9696532723280598
 32
0.0
 13
896.560592031930355
 23
1258.9696532723280598
 33
0.0
  0
SOLID
  5
84EC
  8
0
 62
     7
 10
885.8633039635600426
 20
364.4143773814981841
 30
0.0
 11
899.1966372968933001
 21
364.4143773814981841
 31
0.0
 12
892.5299706302266713
 22
329.9667511965835729
 32
0.0
 13
892.5299706302266713
 23
329.9667511965835729
 33
0.0
  0
TEXT
  5
84ED
  8
0
 62
     7
 10
907.5299706302266713
 20
763.2700130511148018
 30
0.0
 40
30.0
  1
928
 50
90.0
  0
LINE
  5
84EE
  8
0
 10
921.595643881631986
 20
1258.9696532723280598
 30
0.0
 11
871.5255401822288377
 21
1258.9696532723280598
 31
0.0
  0
LINE
  5
84F0
  8
0
 10
871.5255401822288377
 20
329.9667511965835729
 30
0.0
 11
916.5777530394078667
 21
329.9667511965835729
 31
0.0
  0
LINE
  5
84F1
  8
0
 10
916.5777530394078667
 20
329.9667511965835729
 30
0.0
 11
916.5777530394078667
 21
329.9667511965835729
 31
0.0
  0
ENDSEC
  0
EOF
