  0
SECTION
  2
HEADER
  9
$ACADVER
  1
AC1009
  9
$INSBASE
 10
0.0
 20
0.0
 30
0.0
  9
$EXTMIN
 10
7605.0531251526882
 20
499.0747199988399
 30
-0.0000000349181948
  9
$EXTMAX
 10
11357.92836778237
 20
4518.9477653602908
 30
0.0000000814935747
  9
$LIMMIN
 10
0.0
 20
0.0
  9
$LIMMAX
 10
7780.0
 20
5320.0
  9
$ORTHOMODE
 70
     1
  9
$REGENMODE
 70
     1
  9
$FILLMODE
 70
     1
  9
$QTEXTMODE
 70
     0
  9
$MIRRTEXT
 70
     0
  9
$DRAGMODE
 70
     2
  9
$LTSCALE
 40
100.0
  9
$OSMODE
 70
     0
  9
$ATTMODE
 70
     1
  9
$TEXTSIZE
 40
45.0
  9
$TRACEWID
 40
0.05
  9
$TEXTSTYLE
  7
TITLE3
  9
$CLAYER
  8
OUTLINE
  9
$CELTYPE
  6
BYLAYER
  9
$CECOLOR
 62
   256
  9
$DIMSCALE
 40
1.0
  9
$DIMASZ
 40
0.12
  9
$DIMEXO
 40
0.05
  9
$DIMDLI
 40
0.5
  9
$DIMRND
 40
0.0
  9
$DIMDLE
 40
0.0
  9
$DIMEXE
 40
0.1
  9
$DIMTP
 40
0.1
  9
$DIMTM
 40
0.1
  9
$DIMTXT
 40
0.12
  9
$DIMCEN
 40
0.0
  9
$DIMTSZ
 40
0.0
  9
$DIMTOL
 70
     0
  9
$DIMLIM
 70
     0
  9
$DIMTIH
 70
     1
  9
$DIMTOH
 70
     1
  9
$DIMSE1
 70
     0
  9
$DIMSE2
 70
     0
  9
$DIMTAD
 70
     0
  9
$DIMZIN
 70
     7
  9
$DIMBLK
  1

  9
$DIMASO
 70
     0
  9
$DIMSHO
 70
     0
  9
$DIMPOST
  1

  9
$DIMAPOST
  1
mm
  9
$DIMALT
 70
     0
  9
$DIMALTD
 70
     2
  9
$DIMALTF
 40
25.399999999999999
  9
$DIMLFAC
 40
1.0
  9
$DIMTOFL
 70
     0
  9
$DIMTVP
 40
0.0
  9
$DIMTIX
 70
     0
  9
$DIMSOXD
 70
     0
  9
$DIMSAH
 70
     0
  9
$DIMBLK1
  1

  9
$DIMBLK2
  1

  9
$DIMSTYLE
  2
AM_ANSI
  9
$DIMCLRD
 70
   256
  9
$DIMCLRE
 70
   256
  9
$DIMCLRT
 70
     2
  9
$DIMTFAC
 40
0.71
  9
$DIMGAP
 40
0.06
  9
$LUNITS
 70
     2
  9
$LUPREC
 70
     2
  9
$SKETCHINC
 40
0.1
  9
$FILLETRAD
 40
0.0
  9
$AUNITS
 70
     0
  9
$AUPREC
 70
     2
  9
$MENU
  1
\acad12\support\cnc
  9
$ELEVATION
 40
0.0
  9
$PELEVATION
 40
0.0
  9
$THICKNESS
 40
0.0
  9
$LIMCHECK
 70
     0
  9
$BLIPMODE
 70
     0
  9
$CHAMFERA
 40
0.0
  9
$CHAMFERB
 40
0.0
  9
$SKPOLY
 70
     0
  9
$TDCREATE
 40
2451402.5558215282
  9
$TDUPDATE
 40
2455849.4516037269
  9
$TDINDWG
 40
0.2431145139
  9
$TDUSRTIMER
 40
0.2431125347
  9
$USRTIMER
 70
     1
  9
$ANGBASE
 50
0.0
  9
$ANGDIR
 70
     0
  9
$PDMODE
 70
     2
  9
$PDSIZE
 40
15.0
  9
$PLINEWID
 40
0.0
  9
$COORDS
 70
     1
  9
$SPLFRAME
 70
     0
  9
$SPLINETYPE
 70
     6
  9
$SPLINESEGS
 70
     8
  9
$ATTDIA
 70
     1
  9
$ATTREQ
 70
     1
  9
$HANDLING
 70
     1
  9
$HANDSEED
  5
28B4
  9
$SURFTAB1
 70
     6
  9
$SURFTAB2
 70
     6
  9
$SURFTYPE
 70
     6
  9
$SURFU
 70
     6
  9
$SURFV
 70
     6
  9
$UCSNAME
  2

  9
$UCSORG
 10
0.0
 20
0.0
 30
0.0
  9
$UCSXDIR
 10
1.0
 20
0.0
 30
0.0
  9
$UCSYDIR
 10
0.0
 20
1.0
 30
0.0
  9
$PUCSNAME
  2

  9
$PUCSORG
 10
0.0
 20
0.0
 30
0.0
  9
$PUCSXDIR
 10
1.0
 20
0.0
 30
0.0
  9
$PUCSYDIR
 10
0.0
 20
1.0
 30
0.0
  9
$USERI1
 70
     0
  9
$USERI2
 70
     0
  9
$USERI3
 70
     0
  9
$USERI4
 70
     0
  9
$USERI5
 70
     0
  9
$USERR1
 40
0.0
  9
$USERR2
 40
0.0
  9
$USERR3
 40
0.0
  9
$USERR4
 40
0.0
  9
$USERR5
 40
0.0
  9
$WORLDVIEW
 70
     1
  9
$SHADEDGE
 70
     3
  9
$SHADEDIF
 70
    70
  9
$TILEMODE
 70
     1
  9
$MAXACTVP
 70
    16
  9
$PLIMCHECK
 70
     0
  9
$PEXTMIN
 10
1.0000000000000000E+020
 20
1.0000000000000000E+020
 30
1.0000000000000000E+020
  9
$PEXTMAX
 10
-1.0000000000000000E+020
 20
-1.0000000000000000E+020
 30
-1.0000000000000000E+020
  9
$PLIMMIN
 10
0.0
 20
0.0
  9
$PLIMMAX
 10
12.0
 20
9.0
  9
$UNITMODE
 70
     0
  9
$VISRETAIN
 70
     0
  9
$PLINEGEN
 70
     0
  9
$PSLTSCALE
 70
     0
  0
ENDSEC
  0
SECTION
  2
TABLES
  0
TABLE
  2
VPORT
 70
     1
  0
VPORT
  2
*ACTIVE
 70
     0
 10
0.0
 20
0.0
 11
1.0
 21
1.0
 12
9481.4907464675325
 22
2509.0112426795658
 13
0.0
 23
0.0
 14
50.0
 24
50.0
 15
100.0
 25
100.0
 16
0.0
 26
0.0
 36
1.0
 17
0.0
 27
0.0
 37
0.0
 40
4044.5853796567062
 41
1.6307692307692301
 42
50.0
 43
0.0
 44
0.0
 50
0.0
 51
0.0
 71
     0
 72
   100
 73
     1
 74
     0
 75
     0
 76
     0
 77
     0
 78
     0
  0
ENDTAB
  0
TABLE
  2
LTYPE
 70
    18
  0
LTYPE
  2
CONTINUOUS
 70
     0
  3
Solid line
 72
    65
 73
     0
 40
0.0
  0
LTYPE
  2
PHANTOM
 70
     0
  3
______  __  __  ______  __  __  ______  __  __ 
 72
    65
 73
     6
 40
2.5
 49
1.25
 49
-0.25
 49
0.25
 49
-0.25
 49
0.25
 49
-0.25
  0
LTYPE
  2
HIDDEN
 70
     0
  3
Hidden __ __ __ __ __ __ __ __ __ __ __ __ __ _
 72
    65
 73
     2
 40
0.375
 49
0.25
 49
-0.125
  0
LTYPE
  2
PHANTOM2
 70
     0
  3
Phantom (.5x) ___ _ _ ___ _ _ ___ _ _ ___ _ _
 72
    65
 73
     6
 40
1.25
 49
0.625
 49
-0.125
 49
0.125
 49
-0.125
 49
0.125
 49
-0.125
  0
LTYPE
  2
CENTER
 70
     0
  3
Center ____ _ ____ _ ____ _ ____ _ ____ _ ____
 72
    65
 73
     4
 40
2.0
 49
1.25
 49
-0.25
 49
0.25
 49
-0.25
  0
LTYPE
  2
AM_ISO02W050
 70
     0
  3
__ __ __ __ __ __ __ __ __ __ __ __ __ __ __
 72
    65
 73
     2
 40
7.5
 49
6.0
 49
-1.5
  0
LTYPE
  2
AM_ISO08W050
 70
     0
  3
____ . ____ . ____ . ____ . ____ . ____ . ____
 72
    65
 73
     4
 40
18.0
 49
12.0
 49
-1.5
 49
3.0
 49
-1.5
  0
LTYPE
  2
AM_ISO09W050
 70
     0
  3
_____ . . _____ . . _____ . . ____ .. ____
 72
    65
 73
     6
 40
22.5
 49
12.0
 49
-1.5
 49
3.0
 49
-1.5
 49
3.0
 49
-1.5
  0
LTYPE
  2
AMCONSTR
 70
     0
  3
_______________________
 72
    65
 73
     2
 40
9999.0
 49
9999.0
 49
0.0
  0
LTYPE
  2
AM_ISO08W050X2
 70
     0
  3
__ . __ . __ . __ . __ . __
 72
    65
 73
     4
 40
9.0
 49
6.0
 49
-0.75
 49
1.5
 49
-0.75
  0
LTYPE
  2
AM_ISO02W050X2
 70
     0
  3
 _ _ _ _ _ _ _ _ _ _ _ _
 72
    65
 73
     2
 40
3.75
 49
3.0
 49
-0.75
  0
LTYPE
  2
AMZIGZAG
 70
     0
  3
/\/-/\/-/\/-/\/-/\/-/\/
 72
    65
 73
     2
 40
11.0001
 49
0.0001
 49
-11.0
  0
LTYPE
  2
CENTER2
 70
     0
  3
Center (.5x) ___ _ ___ _ ___ _ ___ _ ___ _ ___
 72
    65
 73
     4
 40
1.125
 49
0.75
 49
-0.125
 49
0.125
 49
-0.125
  0
LTYPE
  2
HIDDEN2
 70
     0
  3
Hidden (.5x) _ _ _ _ _ _ _ _ _ _ _ _ _ _ _ _ _
 72
    65
 73
     2
 40
0.1875
 49
0.125
 49
-0.0625
  0
LTYPE
  2
AMZIGZAG2
 70
     0
  3
/\/-/\/-/\/-/\/-/\/-/\/
 72
    65
 73
     2
 40
0.4401
 49
0.0001
 49
-0.4400000000000003
  0
LTYPE
  2
ACANSTGB
 70
     0
  3
__ . . __ . .
 72
    65
 73
     6
 40
0.35433070866
 49
0.15748031496
 49
-0.03937007874
 49
0.03937007874
 49
-0.03937007874
 49
0.03937007874
 49
-0.03937007874
  0
LTYPE
  2
ACANSTGL
 70
     0
  3
_ _ _ _ _
 72
    65
 73
     2
 40
0.11811023622
 49
0.07874015748
 49
-0.03937007874
  0
ENDTAB
  0
TABLE
  2
LAYER
 70
     7
  0
LAYER
  2
0
 70
     0
 62
     7
  6
CONTINUOUS
  0
LAYER
  2
OUTLINE
 70
     0
 62
     7
  6
CONTINUOUS
  0
LAYER
  2
TEXT
 70
     0
 62
   100
  6
CONTINUOUS
  0
LAYER
  2
DIM
 70
     0
 62
     2
  6
CONTINUOUS
  0
LAYER
  2
MTG-FEET
 70
     0
 62
    30
  6
CONTINUOUS
  0
LAYER
  2
OVERLAY-A3
 70
     0
 62
     7
  6
CONTINUOUS
  0
LAYER
  2
CLEAR
 70
     0
 62
     1
  6
PHANTOM
  0
ENDTAB
  0
TABLE
  2
STYLE
 70
     8
  0
STYLE
  2
STANDARD
 70
     0
 40
0.0
 41
1.0
 50
0.0
 71
     0
 42
0.2
  3
txt
  4

  0
STYLE
  2
ANNOTATIVE
 70
     0
 40
0.0
 41
1.0
 50
0.0
 71
     0
 42
0.2
  3
txt
  4

  0
STYLE
  2
TITLE3
 70
     0
 40
45.0
 41
1.0
 50
0.0
 71
     0
 42
45.0
  3
SIMPLEX
  4

  0
STYLE
  2
TITLE5
 70
     0
 40
75.0
 41
1.0
 50
0.0
 71
     0
 42
100.0
  3
SIMPLEX
  4

  0
STYLE
  2
SIMPLEX
 70
     0
 40
60.0
 41
1.0
 50
0.0
 71
     0
 42
60.0
  3
simplex
  4

  0
STYLE
  2

 70
     1
 40
0.0
 41
1.0
 50
0.0
 71
     0
 42
45.0
  3
genltshp.shx
  4

  0
STYLE
  2
ACANSTS
 70
     0
 40
1.0
 41
1.0
 50
0.0
 71
     0
 42
45.0
  3
romans.shx
  4

  0
STYLE
  2
ACANSGDT
 70
     0
 40
0.0
 41
1.0
 50
0.0
 71
     0
 42
45.0
  3
amgdt.shx
  4

  0
ENDTAB
  0
TABLE
  2
VIEW
 70
     0
  0
ENDTAB
  0
TABLE
  2
UCS
 70
     0
  0
ENDTAB
  0
TABLE
  2
APPID
 70
    14
  0
APPID
  2
ACAD
 70
     0
  0
APPID
  2
ACADANNOTATIVE
 70
     0
  0
APPID
  2
ACAD_PSEXT
 70
     0
  0
APPID
  2
ACAD_MLEADERVER
 70
     0
  0
APPID
  2
MCAD_NO_VIS
 70
     0
  0
APPID
  2
ACAD_TEMP_GRAPHIC
 70
     0
  0
APPID
  2
AD_DRAW
 70
     0
  0
APPID
  2
ACATTRIBSERVICES
 70
     0
  0
APPID
  2
DESIGNERASSEMBLIES
 70
     0
  0
APPID
  2
ACADM_DIM_EDIT
 70
     0
  0
APPID
  2
AMDT_DM_ADJ
 70
     0
  0
APPID
  2
ACAD_DSTYLE_DIMBREAK
 70
     0
  0
APPID
  2
ACAD_DSTYLE_DIMJAG
 70
     0
  0
APPID
  2
ACAD_EXEMPT_FROM_CAD_STANDARDS
 70
     0
  0
ENDTAB
  0
TABLE
  2
DIMSTYLE
 70
     8
  0
DIMSTYLE
  2
STANDARD
 70
     0
  3

  4

  5

  6

  7

 40
1.0
 41
0.18
 42
0.0625
 43
0.38
 44
0.18
 45
0.0
 46
0.0
 47
0.0
 48
0.0
140
0.18
141
0.09
142
0.0
143
25.399999999999999
144
1.0
145
0.0
146
1.0
147
0.09
 71
     0
 72
     0
 73
     1
 74
     1
 75
     0
 76
     0
 77
     0
 78
     0
170
     0
171
     2
172
     0
173
     0
174
     0
175
     0
176
     0
177
     0
178
     0
  0
DIMSTYLE
  2
ANNOTATIVE
 70
     0
  3

  4

  5

  6

  7

 40
1.0
 41
0.18
 42
0.0625
 43
0.38
 44
0.18
 45
0.0
 46
0.0
 47
0.0
 48
0.0
140
0.18
141
0.09
142
0.0
143
25.399999999999999
144
1.0
145
0.0
146
1.0
147
0.09
 71
     0
 72
     0
 73
     1
 74
     1
 75
     0
 76
     0
 77
     0
 78
     0
170
     0
171
     2
172
     0
173
     0
174
     0
175
     0
176
     0
177
     0
178
     0
  0
DIMSTYLE
  2
AM_ANSI
 70
     0
  3

  4
mm
  5

  6

  7

 40
1.0
 41
0.12
 42
0.05
 43
0.5
 44
0.1
 45
0.0
 46
0.0
 47
0.1
 48
0.1
140
0.12
141
0.0
142
0.0
143
25.399999999999999
144
1.0
145
0.0
146
0.71
147
0.06
 71
     0
 72
     0
 73
     1
 74
     1
 75
     0
 76
     0
 77
     0
 78
     7
170
     0
171
     2
172
     0
173
     0
174
     0
175
     0
176
   256
177
   256
178
     2
  0
DIMSTYLE
  2
AM_ANSI$3
 70
     0
  3

  4
mm
  5

  6

  7

 40
1.0
 41
0.12
 42
0.05
 43
0.5
 44
0.1
 45
0.0
 46
0.0
 47
0.1
 48
0.1
140
0.12
141
0.0
142
0.0
143
25.399999999999999
144
1.0
145
0.0
146
0.71
147
0.06
 71
     0
 72
     0
 73
     1
 74
     1
 75
     0
 76
     0
 77
     0
 78
     7
170
     0
171
     2
172
     0
173
     0
174
     0
175
     0
176
   256
177
   256
178
     2
  0
DIMSTYLE
  2
AM_ANSI$4
 70
     0
  3

  4
mm
  5

  6

  7

 40
1.0
 41
0.12
 42
0.05
 43
0.5
 44
0.1
 45
0.0
 46
0.0
 47
0.1
 48
0.1
140
0.12
141
0.0
142
0.0
143
25.399999999999999
144
1.0
145
0.0
146
0.71
147
0.06
 71
     0
 72
     0
 73
     1
 74
     1
 75
     0
 76
     0
 77
     0
 78
     7
170
     0
171
     2
172
     0
173
     0
174
     0
175
     0
176
   256
177
   256
178
     2
  0
DIMSTYLE
  2
AM_ANSI$7
 70
     0
  3

  4
mm
  5

  6

  7

 40
1.0
 41
0.12
 42
0.05
 43
0.5
 44
0.1
 45
0.0
 46
0.0
 47
0.1
 48
0.1
140
0.12
141
0.0
142
0.0
143
25.399999999999999
144
1.0
145
0.0
146
0.71
147
0.06
 71
     0
 72
     0
 73
     1
 74
     1
 75
     0
 76
     0
 77
     0
 78
     7
170
     0
171
     2
172
     0
173
     0
174
     0
175
     0
176
   256
177
   256
178
     2
  0
DIMSTYLE
  2
AM_ANSI$SF
 70
     0
  3

  4
mm
  5

  6

  7

 40
1.0
 41
0.12
 42
0.05
 43
0.5
 44
0.1
 45
0.0
 46
0.0
 47
0.1
 48
0.1
140
0.12
141
0.0
142
0.0
143
25.399999999999999
144
1.0
145
0.0
146
0.71
147
0.06
 71
     0
 72
     0
 73
     1
 74
     1
 75
     1
 76
     1
 77
     0
 78
     7
170
     0
171
     2
172
     0
173
     0
174
     0
175
     0
176
   256
177
   256
178
     2
  0
DIMSTYLE
  2
AM_ANSI$SH
 70
     0
  3

  4
mm
  5

  6

  7

 40
1.0
 41
0.12
 42
0.05
 43
0.5
 44
0.1
 45
0.0
 46
0.0
 47
0.1
 48
0.1
140
0.12
141
0.0
142
0.0
143
25.399999999999999
144
1.0
145
0.0
146
0.71
147
0.06
 71
     0
 72
     0
 73
     1
 74
     1
 75
     1
 76
     1
 77
     0
 78
     7
170
     0
171
     2
172
     0
173
     1
174
     0
175
     0
176
   256
177
   256
178
     2
  0
ENDTAB
  0
ENDSEC
  0
SECTION
  2
BLOCKS
  0
BLOCK
  8
0
  2
$MODEL_SPACE
 70
     0
 10
0.0
 20
0.0
 30
0.0
  3
$MODEL_SPACE
  1

  0
ENDBLK
  5
27AC
  8
0
  0
BLOCK
 67
     1
  8
0
  2
$PAPER_SPACE
 70
     0
 10
0.0
 20
0.0
 30
0.0
  3
$PAPER_SPACE
  1

  0
ENDBLK
  5
27A8
 67
     1
  8
0
  0
BLOCK
  8
0
  2
LINES
 70
     0
 10
0.0
 20
0.0
 30
0.0
  3
LINES
  1

  0
ENDBLK
  5
F67
  8
0
  0
BLOCK
  8
0
  2
NEW_BLOCK
 70
     0
 10
0.0
 20
0.0
 30
0.0
  3
NEW_BLOCK
  1

  0
TEXT
  5
F6A
  8
TEXT
 10
27.285946821803002
 20
25.27142175952417
 30
0.0
 40
40.0
  1
available on request
  7
TITLE3
  0
TEXT
  5
F6B
  8
TEXT
 10
27.285946821803002
 20
93.842850330952714
 30
0.0
 40
40.0
  1
Certified dimensions
  7
TITLE3
  0
TEXT
  5
F6C
  8
TEXT
 10
27.285946821803002
 20
162.4142789023812
 30
0.0
 40
40.0
  1
without notice or obligation.
  7
TITLE3
  0
TEXT
  5
F6D
  8
TEXT
 10
27.285946821803002
 20
230.9857074738097
 30
0.0
 40
40.0
  1
specifications at any time
  7
TITLE3
  0
TEXT
  5
F6E
  8
TEXT
 10
27.285946821803002
 20
299.55713604523839
 30
0.0
 40
40.0
  1
the right to change 
  7
TITLE3
  0
TEXT
  5
F6F
  8
TEXT
 10
27.285946821803002
 20
436.69999318809488
 30
0.0
 40
40.0
  1
NOTE
  7
TITLE3
  0
TEXT
  5
F70
  8
TEXT
 10
27.285946821803002
 20
368.12856461666678
 30
0.0
 40
40.0
  1
The manufacturer reserves
  7
TITLE3
  0
ENDBLK
  5
F71
  8
0
  0
BLOCK
  8
0
  2
GENAXEH
 70
     0
 10
0.0
 20
0.0
 30
0.0
  3
GENAXEH
  1

  0
LINE
  5
1192
  8
0
 10
-1.0
 20
0.0
 30
0.0
 11
1.0
 21
0.0
 31
0.0
  0
ENDBLK
  5
1194
  8
0
  0
ENDSEC
  0
SECTION
  2
ENTITIES
  0
INSERT
  5
FCE
  8
MTG-FEET
  2
LINES
 10
637.42319439946073
 20
2246.7294005091198
 30
0.0
  0
LINE
  5
13AC
  8
OUTLINE
 10
7954.0768156211034
 20
749.04607947175589
 30
0.0
 11
9040.6768156211037
 21
749.04607947175589
 31
0.0
  0
TEXT
  5
13AD
  8
TEXT
 10
9959.0208279824437
 20
906.4402582021612
 30
0.0
 40
75.0
  1
temperzone OSA 65
  7
TITLE5
 72
     1
 11
10532.23511369673
 21
906.4402582021612
 31
0.0
  0
TEXT
  5
13AE
  8
TEXT
 10
10717.903050763211
 20
606.37604918790805
 30
0.0
 40
40.499999999999993
  1
OSA65 
 41
1.65040650406504
  7
TITLE3
 72
     5
 11
11109.403050763211
 21
606.37604918790805
 31
0.0
  0
LINE
  5
13B1
  8
OUTLINE
 10
7954.0768156211034
 20
1377.246079471756
 30
0.0
 11
7954.0768156211034
 21
749.04607947175589
 31
0.0
  0
TEXT
  5
13B2
  8
DIM
 10
8545.9509565762546
 20
3599.557432273813
 30
0.0
 40
45.0
  1
FLOW
 50
90.0
  7
SIMPLEX
  0
TEXT
  5
13B3
  8
DIM
 10
8427.3186751533358
 20
3593.8814630888041
 30
0.0
 40
45.0
  1
AIR
 50
90.0
  7
SIMPLEX
  0
LINE
  5
13B4
  8
DIM
 10
8474.1871951938974
 20
3567.5401538232959
 30
0.0
 11
8474.1871951938974
 21
3629.2594451618802
 31
0.0
  0
LINE
  5
13B5
  8
DIM
 10
8501.4079736028689
 20
3567.5401538232959
 30
0.0
 11
8474.1871951938974
 21
3567.5401538232959
 31
0.0
  0
LINE
  5
13B6
  8
DIM
 10
8461.526368026929
 20
3534.7814530358919
 30
0.0
 11
8501.4079736028689
 21
3567.5401538232959
 31
0.0
  0
LINE
  5
13B7
  8
DIM
 10
8448.8655408599661
 20
3629.2594451618802
 30
0.0
 11
8474.1871951938974
 21
3629.2594451618802
 31
0.0
  0
LINE
  5
13B8
  8
DIM
 10
8448.8655408599661
 20
3567.5401538232959
 30
0.0
 11
8448.8655408599661
 21
3629.2594451618802
 31
0.0
  0
LINE
  5
13B9
  8
DIM
 10
8421.6447624509983
 20
3567.5401538232959
 30
0.0
 11
8448.8655408599661
 21
3567.5401538232959
 31
0.0
  0
LINE
  5
13BA
  8
DIM
 10
8461.526368026929
 20
3534.7814530358919
 30
0.0
 11
8421.6447624509983
 21
3567.5401538232959
 31
0.0
  0
LINE
  5
13BB
  8
DIM
 10
9041.8768156211081
 20
1410.2460794717549
 30
0.0
 11
9041.8768156211081
 21
1538.277528150139
 31
0.0
  0
LINE
  5
13BC
  8
DIM
 10
7952.8768156211017
 20
1410.2460794717549
 30
0.0
 11
7952.8768156211017
 21
1538.277528150139
 31
0.0
  0
LINE
  5
13BD
  8
DIM
 10
8996.8768156211063
 20
1508.2775281501381
 30
0.0
 11
8578.459616543938
 21
1508.2775281501381
 31
0.0
  0
LINE
  5
13BE
  8
DIM
 10
8003.8768156211099
 20
1508.2775281501381
 30
0.0
 11
8412.3881879725086
 21
1508.2775281501381
 31
0.0
  0
SOLID
  5
13BF
  8
DIM
 10
8996.8768156211063
 20
1515.777528150139
 30
0.0
 11
8996.8768156211063
 21
1500.7775281501399
 31
0.0
 12
9041.8768156211081
 22
1508.2775281501381
 32
0.0
 13
9041.8768156211081
 23
1508.2775281501381
 33
0.0
  0
SOLID
  5
13C0
  8
DIM
 10
7997.8768156211063
 20
1515.777528150139
 30
0.0
 11
7997.8768156211063
 21
1500.7775281501399
 31
0.0
 12
7952.8768156211017
 22
1508.2775281501381
 32
0.0
 13
7952.8768156211017
 23
1508.2775281501381
 33
0.0
  0
TEXT
  5
13C1
  8
DIM
 10
8420.4253853604623
 20
1485.7775281501381
 30
0.0
 40
45.0
  1
1087
  7
TITLE3
 72
     1
 11
8495.4253853604623
 21
1508.2775281501381
 31
0.0
 73
     2
  0
LINE
  5
13C2
  8
DIM
 10
9071.8768156211081
 20
1377.246079471756
 30
0.0
 11
9219.1054038767888
 21
1377.246079471756
 31
0.0
  0
LINE
  5
13C3
  8
DIM
 10
8939.9556628296505
 20
716.04607947175612
 30
0.0
 11
9219.1054038767888
 21
716.04607947175612
 31
0.0
  0
LINE
  5
13C4
  8
DIM
 10
9189.1054038767834
 20
1335.2460794717549
 30
0.0
 11
9189.1054038767834
 21
1104.3101306280601
 31
0.0
  0
LINE
  5
13C5
  8
DIM
 10
9189.1054038767834
 20
761.04607947175589
 30
0.0
 11
9189.1054038767888
 21
966.09584491377461
 31
0.0
  0
SOLID
  5
13C6
  8
DIM
 10
9181.6054038767834
 20
1332.246079471756
 30
0.0
 11
9196.6054038767834
 21
1332.246079471756
 31
0.0
 12
9189.1054038767834
 22
1377.246079471756
 32
0.0
 13
9189.1054038767834
 23
1377.246079471756
 33
0.0
  0
SOLID
  5
13C7
  8
DIM
 10
9181.6054038767834
 20
761.04607947175589
 30
0.0
 11
9196.6054038767834
 21
761.04607947175589
 31
0.0
 12
9189.1054038767834
 22
716.04607947175612
 32
0.0
 13
9189.1054038767834
 23
716.04607947175612
 33
0.0
  0
TEXT
  5
13C8
  8
DIM
 10
9211.6054038767834
 20
977.34732801601524
 30
0.0
 40
45.0
  1
662
 50
90.0
  7
TITLE3
 72
     4
 11
9189.1054038767834
 21
1035.204470873158
 31
0.0
  0
LINE
  5
13C9
  8
DIM
 10
8139.7768156211023
 20
701.24248290450305
 30
0.0
 11
8139.7768156211023
 21
573.62094472393665
 31
0.0
  0
LINE
  5
13CA
  8
DIM
 10
8139.7768156211023
 20
603.62094472393665
 30
0.0
 11
8323.1901013007846
 21
603.62094472393665
 31
0.0
  0
LINE
  5
13CB
  8
DIM
 10
8807.7768156211005
 20
603.62094472393665
 30
0.0
 11
8806.5402707493886
 21
603.62094472393665
 31
0.0
  0
SOLID
  5
13CC
  8
DIM
 10
8184.7768156210977
 20
611.12094472393665
 30
0.0
 11
8184.7768156210977
 21
596.1209447239371
 31
0.0
 12
8139.7768156211023
 22
603.62094472393665
 32
0.0
 13
8139.7768156211023
 23
603.62094472393665
 33
0.0
  0
SOLID
  5
13CD
  8
DIM
 10
8807.7768156211005
 20
611.12094472393665
 30
0.0
 11
8807.7768156211005
 21
596.1209447239371
 31
0.0
 12
8852.7768156211023
 22
603.62094472393665
 32
0.0
 13
8852.7768156211023
 23
603.62094472393665
 33
0.0
  0
TEXT
  5
13CE
  8
DIM
 10
8334.4415844030264
 20
581.12094472393676
 30
0.0
 40
45.0
  1
713 CTRS
  7
TITLE3
 72
     1
 11
8494.0844415458851
 21
603.62094472393665
 31
0.0
 73
     2
  0
LINE
  5
13CF
  8
DIM
 10
8852.7768156211023
 20
701.24248290450305
 30
0.0
 11
8852.7768156211023
 21
573.62094472393665
 31
0.0
  0
LINE
  5
13D0
  8
DIM
 10
8664.9758155864984
 20
603.62094472393665
 30
0.0
 11
8852.7768156211023
 21
603.62094472393665
 31
0.0
  0
SOLID
  5
13D1
  8
DIM
 10
8807.7768156211005
 20
611.12094472393665
 30
0.0
 11
8807.7768156211005
 21
596.1209447239371
 31
0.0
 12
8852.7768156211023
 22
603.62094472393665
 32
0.0
 13
8852.7768156211023
 23
603.62094472393665
 33
0.0
  0
SOLID
  5
13D2
  8
DIM
 10
7909.0768156211043
 20
611.12094472393665
 30
0.0
 11
7909.0768156211043
 21
596.1209447239371
 31
0.0
 12
7954.0768156211034
 22
603.62094472393665
 32
0.0
 13
7954.0768156211034
 23
603.62094472393665
 33
0.0
  0
LINE
  5
13D3
  8
DIM
 10
7954.0768156211034
 20
735.64607947175614
 30
0.0
 11
7954.0768156211034
 21
573.62094472393665
 31
0.0
  0
LINE
  5
13D4
  8
DIM
 10
7909.0768156211043
 20
603.62094472393665
 30
0.0
 11
7864.0768156211097
 21
603.62094472393665
 31
0.0
  0
TEXT
  5
13D5
  8
DIM
 10
7995.5341333282604
 20
585.81271880043175
 30
0.0
 40
45.0
  1
186
  7
TITLE3
 72
     1
 11
8048.0341333282613
 21
608.31271880043175
 31
0.0
 73
     2
  0
LINE
  5
13D6
  8
DIM
 10
10095.053093533101
 20
3828.2841183083351
 30
0.0
 11
10010.556470201651
 21
3828.2841183083351
 31
0.0
  0
LINE
  5
13D7
  8
DIM
 10
10095.053093533101
 20
4206.6841183083316
 30
0.0
 11
10010.556470201651
 21
4206.6841183083316
 31
0.0
  0
LINE
  5
13D8
  8
DIM
 10
10040.556470201651
 20
3873.2841183083351
 30
0.0
 11
10040.556470201651
 21
3930.5483835429991
 31
0.0
  0
LINE
  5
13D9
  8
DIM
 10
10040.556470201651
 20
4161.6841183083334
 30
0.0
 11
10040.556470201651
 21
4108.5151648109368
 31
0.0
  0
SOLID
  5
13DA
  8
DIM
 10
10033.056470201651
 20
3873.2841183083351
 30
0.0
 11
10048.056470201651
 21
3873.2841183083351
 31
0.0
 12
10040.556470201651
 22
3828.2841183083351
 32
0.0
 13
10040.556470201651
 23
3828.2841183083351
 33
0.0
  0
SOLID
  5
13DB
  8
DIM
 10
10033.056470201651
 20
4161.6841183083334
 30
0.0
 11
10048.056470201651
 21
4161.6841183083334
 31
0.0
 12
10040.556470201651
 22
4206.6841183083316
 32
0.0
 13
10040.556470201651
 23
4206.6841183083316
 33
0.0
  0
TEXT
  5
13DC
  8
DIM
 10
10063.056470201651
 20
3971.674631319825
 30
0.0
 40
45.0
  1
378
 50
90.0
  7
TITLE3
 72
     1
 11
10040.556470201651
 21
4029.5317741769668
 31
0.0
 73
     2
  0
LINE
  5
13DD
  8
OUTLINE
 10
8084.0768156211043
 20
3807.284118308336
 30
0.0
 11
8195.4768156211048
 21
3807.284118308336
 31
0.0
  0
LINE
  5
13DE
  8
OUTLINE
 10
8074.4768156211012
 20
3828.2841183083351
 30
0.0
 11
8074.4768156211012
 21
3816.884118308335
 31
0.0
  0
LINE
  5
13DF
  8
OUTLINE
 10
8074.4768156211012
 20
3816.884118308335
 30
0.0
 11
8084.0768156211043
 21
3807.284118308336
 31
0.0
  0
LINE
  5
13E0
  8
OUTLINE
 10
8205.0768156211034
 20
3816.884118308335
 30
0.0
 11
8195.4768156211048
 21
3807.284118308336
 31
0.0
  0
LINE
  5
13E1
  8
OUTLINE
 10
8205.0768156211034
 20
3816.8841183083368
 30
0.0
 11
8205.0768156211034
 21
3828.2841183083351
 31
0.0
  0
LINE
  5
13E2
  8
OUTLINE
 10
8125.7768156210986
 20
4229.2841183083337
 30
0.0
 11
8084.0768156211043
 21
4229.2841183083337
 31
0.0
  0
LINE
  5
13E3
  8
OUTLINE
 10
8074.4768156211012
 20
4219.6841183083334
 30
0.0
 11
8074.4768156211012
 21
4206.6841183083316
 31
0.0
  0
LINE
  5
13E4
  8
OUTLINE
 10
8074.4768156211012
 20
4219.6841183083334
 30
0.0
 11
8084.0768156211043
 21
4229.2841183083337
 31
0.0
  0
LINE
  5
13E5
  8
OUTLINE
 10
8205.0768156211034
 20
4219.6841183083334
 30
0.0
 11
8195.4768156211048
 21
4229.2841183083337
 31
0.0
  0
LINE
  5
13E6
  8
OUTLINE
 10
8195.4768156211048
 20
4229.2841183083337
 30
0.0
 11
8153.7768156210977
 21
4229.2841183083337
 31
0.0
  0
LINE
  5
13E7
  8
OUTLINE
 10
8125.7768156210986
 20
4229.2841183083337
 30
0.0
 11
8133.7768156211023
 21
4221.2841183083337
 31
0.0
  0
LINE
  5
13E8
  8
OUTLINE
 10
8153.7768156210977
 20
4229.2841183083337
 30
0.0
 11
8145.7768156211023
 21
4221.2841183083337
 31
0.0
  0
LINE
  5
13E9
  8
OUTLINE
 10
8133.7768156211023
 20
4206.6841183083316
 30
0.0
 11
8133.7768156211023
 21
4221.2841183083337
 31
0.0
  0
LINE
  5
13EA
  8
OUTLINE
 10
8145.7768156211023
 20
4206.6841183083316
 30
0.0
 11
8145.7768156211023
 21
4221.2841183083337
 31
0.0
  0
LINE
  5
13EB
  8
OUTLINE
 10
8205.0768156211034
 20
4206.6841183083316
 30
0.0
 11
8205.0768156211034
 21
4219.6841183083334
 31
0.0
  0
LINE
  5
13EC
  8
OUTLINE
 10
10790.3530935331
 20
3807.284118308336
 30
0.0
 11
10790.3530935331
 21
4229.2841183083337
 31
0.0
  0
LINE
  5
13ED
  8
OUTLINE
 10
10790.3530935331
 20
3807.284118308336
 30
0.0
 11
10788.3530935331
 21
3807.284118308336
 31
0.0
  0
LINE
  5
13EE
  8
OUTLINE
 10
10777.4530935331
 20
3833.5095118531799
 30
0.0
 11
10756.2530935331
 21
3833.5095118531799
 31
0.0
  0
LINE
  5
13F0
  8
OUTLINE
 10
10777.4530935331
 20
4197.9841183083327
 30
0.0
 11
10756.2530935331
 21
4197.9841183083327
 31
0.0
  0
LINE
  5
13F1
  8
DIM
 10
10820.3530935331
 20
3807.284118308336
 30
0.0
 11
11168.8708416474
 21
3807.284118308336
 31
0.0
  0
LINE
  5
13F2
  8
DIM
 10
10820.3530935331
 20
4229.2841183083337
 30
0.0
 11
11168.8708416474
 21
4229.2841183083337
 31
0.0
  0
LINE
  5
13F3
  8
DIM
 10
11138.8708416474
 20
3854.7841183083351
 30
0.0
 11
11138.8708416474
 21
3964.1352526351679
 31
0.0
  0
LINE
  5
13F4
  8
DIM
 10
11138.8708416474
 20
4074.706681206595
 30
0.0
 11
11138.8708416474
 21
4184.495783887427
 31
0.0
  0
SOLID
  5
13F5
  8
DIM
 10
11131.3708416474
 20
3852.284118308336
 30
0.0
 11
11146.3708416474
 21
3852.284118308336
 31
0.0
 12
11138.8708416474
 22
3807.284118308336
 32
0.0
 13
11138.8708416474
 23
3807.284118308336
 33
0.0
  0
SOLID
  5
13F6
  8
DIM
 10
11131.3708416474
 20
4184.2841183083319
 30
0.0
 11
11146.3708416474
 21
4184.2841183083319
 31
0.0
 12
11138.8708416474
 22
4229.2841183083337
 32
0.0
 13
11138.8708416474
 23
4229.2841183083337
 33
0.0
  0
TEXT
  5
13F7
  8
DIM
 10
11156.44281139978
 20
3973.1364391169618
 30
0.0
 40
36.0
  1
422
 50
90.0
  7
TITLE3
 72
     1
 11
11138.44281139978
 21
4019.4221534026751
 31
0.0
 73
     2
  0
TEXT
  5
13F8
  8
TEXT
 10
9967.8088828685813
 20
664.37736922780448
 30
0.0
 40
45.0
  1
14-10-11
 41
0.7724137931034482
  7
TITLE3
 72
     5
 11
10207.80888286858
 21
664.37736922780448
 31
0.0
  0
TEXT
  5
13F9
  8
OVERLAY-A3
 10
9794.5804481386058
 20
665.62419001795604
 30
0.0
 40
36.0
  1
Date
  7
SIMPLEX
  0
TEXT
  5
13FA
  8
OVERLAY-A3
 10
11141.40190225713
 20
693.63232226292143
 30
0.0
 40
36.0
  1
Revision
 41
0.7812095035935113
  7
SIMPLEX
 72
     5
 11
11299.42942469833
 21
693.63232226292143
 31
0.0
  0
LINE
  5
13FB
  8
OVERLAY-A3
 10
11123.972138681969
 20
530.64110850028032
 30
0.0
 11
11123.972138681969
 21
751.78035279062465
 31
0.0
  0
LINE
  5
13FC
  8
OVERLAY-A3
 10
9751.2624078824501
 20
1005.203997474637
 30
0.0
 11
9751.2624078824501
 21
530.64110850028032
 31
0.0
  0
LINE
  5
13FD
  8
OVERLAY-A3
 10
10647.605630716371
 20
530.64110850028032
 30
0.0
 11
10647.605630716371
 21
751.78035279062465
 31
0.0
  0
LINE
  5
13FE
  8
OVERLAY-A3
 10
10647.605630716371
 20
639.34626813199986
 30
0.0
 11
9751.2624078824501
 21
639.34626813199986
 31
0.0
  0
LINE
  5
13FF
  8
OVERLAY-A3
 10
11314.598311553489
 20
751.78035279062465
 30
0.0
 11
9751.2624078824501
 21
751.78035279062465
 31
0.0
  0
LINE
  5
1400
  8
OVERLAY-A3
 10
9751.2624078824501
 20
530.64110850028032
 30
0.0
 11
11314.15205078596
 21
530.64110850028032
 31
0.0
  0
LINE
  5
1401
  8
OVERLAY-A3
 10
11314.15205078596
 20
530.64110850028032
 30
0.0
 11
11314.15205078596
 21
1005.203997474637
 31
0.0
  0
LINE
  5
1402
  8
OVERLAY-A3
 10
11314.15205078596
 20
1005.203997474637
 30
0.0
 11
9751.2624078824501
 21
1005.203997474637
 31
0.0
  0
TEXT
  5
1403
  8
OVERLAY-A3
 10
9788.9599423513973
 20
571.26110132584085
 30
0.0
 40
30.0
  1
Scale
 41
1.3701747965659621
  7
SIMPLEX
 72
     5
 11
9939.6791699736532
 21
571.26110132584085
 31
0.0
  0
TEXT
  5
1404
  8
OVERLAY-A3
 10
10734.523799097909
 20
692.71751648786881
 30
0.0
 40
30.0
  1
Drawing No.
  7
SIMPLEX
 72
     2
 11
10995.95237052648
 21
692.71751648786881
 31
0.0
  0
LINE
  5
1405
  8
OVERLAY-A3
 10
7605.8148492936807
 20
499.37736922780459
 30
0.0
 11
11357.23511369673
 21
499.37736922780459
 31
0.0
  0
LINE
  5
1406
  8
OVERLAY-A3
 10
11357.23511369673
 20
499.37736922780459
 30
0.0
 11
11357.23511369673
 21
4518.6061008377301
 31
0.0
  0
LINE
  5
1407
  8
OVERLAY-A3
 10
11357.23511369673
 20
4518.6061008377301
 30
0.0
 11
7605.8148492936807
 21
4518.606100837731
 31
0.0
  0
LINE
  5
1408
  8
OVERLAY-A3
 10
7605.8148492936807
 20
4518.606100837731
 30
0.0
 11
7605.8148492936807
 21
499.37736922780459
 31
0.0
  0
TEXT
  5
1409
  8
TEXT
 10
10021.37841915169
 20
573.58742625116145
 30
0.0
 40
45.0
  1
1:20
  7
TITLE3
  0
LINE
  5
140C
  8
OUTLINE
 10
8783.7768156211041
 20
749.04607947175589
 30
0.0
 11
8783.7768156211041
 21
714.94607947175564
 31
0.0
  0
LINE
  5
140D
  8
OUTLINE
 10
8921.7768156211041
 20
748.64607947175614
 30
0.0
 11
8921.7768156211041
 21
714.94607947175564
 31
0.0
  0
LINE
  5
140F
  8
OUTLINE
 10
8070.7768156211032
 20
749.04607947175589
 30
0.0
 11
8070.7768156211032
 21
714.94607947175564
 31
0.0
  0
LINE
  5
1410
  8
OUTLINE
 10
8208.7768156211041
 20
749.04607947175589
 30
0.0
 11
8208.7768156211041
 21
714.94607947175564
 31
0.0
  0
LINE
  5
1411
  8
DIM
 10
10823.64887017332
 20
3827.7841183083351
 30
0.0
 11
11007.497648963081
 21
3827.7841183083351
 31
0.0
  0
LINE
  5
1412
  8
DIM
 10
10823.64887017332
 20
4202.7841183083337
 30
0.0
 11
11007.497648963081
 21
4202.7841183083337
 31
0.0
  0
LINE
  5
1413
  8
DIM
 10
10977.497648963081
 20
4274.2841183083356
 30
0.0
 11
10977.497648963081
 21
4319.2841183083374
 31
0.0
  0
SOLID
  5
1414
  8
DIM
 10
10969.99764896309
 20
4274.2841183083356
 30
0.0
 11
10984.997648963081
 21
4274.2841183083356
 31
0.0
 12
10977.497648963081
 22
4229.2841183083337
 32
0.0
 13
10977.497648963081
 23
4229.2841183083337
 33
0.0
  0
TEXT
  5
1415
  8
DIM
 10
10947.064799358581
 20
3885.2417136833128
 30
0.0
 40
36.0
  1
375 CTRS
 50
90.0
  7
TITLE3
  0
LINE
  5
1416
  8
CLEAR
 10
7854.0768156211034
 20
3828.2841183083351
 30
0.0
 11
7854.0768156211034
 21
4306.6841183083307
 31
0.0
  0
LINE
  5
1417
  8
CLEAR
 10
7854.0768156211034
 20
3828.2841183083351
 30
0.0
 11
7919.6674681033119
 21
3828.2841183083351
 31
0.0
  0
LINE
  5
1418
  8
CLEAR
 10
7954.0768156211034
 20
1828.2841183083351
 30
0.0
 11
7954.0768156211034
 21
3779.0687354491911
 31
0.0
  0
LINE
  5
1419
  8
CLEAR
 10
9790.6768156211037
 20
3828.2841183083351
 30
0.0
 11
9079.7840780806728
 21
3828.2841183083351
 31
0.0
  0
TEXT
  5
141A
  8
TEXT
 10
8678.4285965975923
 20
1255.255835903032
 30
0.0
 40
60.0
  1
OSA65
  7
TITLE5
 72
     1
 11
8818.4285965975923
 21
1255.255835903032
 31
0.0
  0
TEXT
  5
141B
  8
TEXT
 10
8129.501940165731
 20
4344.9325545292186
 30
0.0
 40
45.0
  1
100 min CLEARANCE
  7
TITLE3
  0
TEXT
  5
141C
  8
TEXT
 10
8165.6297413005059
 20
1874.7300287236831
 30
0.0
 40
45.0
  1
2000 min CLEARANCE
  7
TITLE3
  0
TEXT
  5
141D
  8
TEXT
 10
7756.5883407067731
 20
3907.1303216028418
 30
0.0
 40
45.0
  1
100 min
 50
90.0
  7
TITLE3
  0
TEXT
  5
141E
  8
TEXT
 10
7833.7311978496264
 20
3856.4750859302658
 30
0.0
 40
45.0
  1
CLEARANCE
 50
90.0
  7
TITLE3
  0
TEXT
  5
141F
  8
TEXT
 10
9683.9613974024705
 20
3904.0144836558652
 30
0.0
 40
45.0
  1
750 min
 50
90.0
  7
TITLE3
  0
TEXT
  5
1420
  8
TEXT
 10
9761.1042545453238
 20
3853.359247983286
 30
0.0
 40
45.0
  1
CLEARANCE
 50
90.0
  7
TITLE3
  0
TEXT
  5
1421
  8
TEXT
 10
10227.989220100309
 20
3979.0190211668018
 30
0.0
 40
75.0
  1
OSA65
  7
TITLE5
 72
     1
 11
10402.9892201003
 21
3979.0190211668018
 31
0.0
  0
TEXT
  5
1422
  8
TEXT
 10
8316.7749569922617
 20
3981.9277476321131
 30
0.0
 40
75.0
  1
OSA65
  7
TITLE5
 72
     1
 11
8491.7749569922617
 21
3981.9277476321131
 31
0.0
  0
LINE
  5
1423
  8
CLEAR
 10
9040.6768156211037
 20
1828.2841183083351
 30
0.0
 11
9040.6768156211037
 21
3779.0687354491911
 31
0.0
  0
LINE
  5
1424
  8
OUTLINE
 10
8797.0768156211052
 20
3807.284118308336
 30
0.0
 11
8908.476815621103
 21
3807.284118308336
 31
0.0
  0
LINE
  5
1425
  8
OUTLINE
 10
8787.4768156211012
 20
3828.2841183083351
 30
0.0
 11
8787.4768156211012
 21
3816.884118308335
 31
0.0
  0
LINE
  5
1426
  8
OUTLINE
 10
8787.4768156211012
 20
3816.884118308335
 30
0.0
 11
8797.0768156211052
 21
3807.284118308336
 31
0.0
  0
LINE
  5
1427
  8
OUTLINE
 10
8918.0768156211052
 20
3816.884118308335
 30
0.0
 11
8908.476815621103
 21
3807.284118308336
 31
0.0
  0
LINE
  5
1428
  8
OUTLINE
 10
8918.0768156211052
 20
3816.8841183083368
 30
0.0
 11
8918.0768156211052
 21
3828.2841183083351
 31
0.0
  0
LINE
  5
1429
  8
OUTLINE
 10
8838.7768156210968
 20
4229.2841183083337
 30
0.0
 11
8797.0768156211052
 21
4229.2841183083337
 31
0.0
  0
LINE
  5
142A
  8
OUTLINE
 10
8787.4768156211012
 20
4219.6841183083334
 30
0.0
 11
8787.4768156211012
 21
4206.6841183083316
 31
0.0
  0
LINE
  5
142B
  8
OUTLINE
 10
8787.4768156211012
 20
4219.6841183083334
 30
0.0
 11
8797.0768156211052
 21
4229.2841183083337
 31
0.0
  0
LINE
  5
142C
  8
OUTLINE
 10
8918.0768156211052
 20
4219.6841183083334
 30
0.0
 11
8908.476815621103
 21
4229.2841183083337
 31
0.0
  0
LINE
  5
142D
  8
OUTLINE
 10
8908.476815621103
 20
4229.2841183083337
 30
0.0
 11
8866.7768156210968
 21
4229.2841183083337
 31
0.0
  0
LINE
  5
142E
  8
OUTLINE
 10
8838.7768156210968
 20
4229.2841183083337
 30
0.0
 11
8846.7768156211023
 21
4221.2841183083337
 31
0.0
  0
LINE
  5
142F
  8
OUTLINE
 10
8866.7768156210968
 20
4229.2841183083337
 30
0.0
 11
8858.7768156210968
 21
4221.2841183083337
 31
0.0
  0
LINE
  5
1430
  8
OUTLINE
 10
8846.7768156211023
 20
4206.6841183083316
 30
0.0
 11
8846.7768156211023
 21
4221.2841183083337
 31
0.0
  0
LINE
  5
1431
  8
OUTLINE
 10
8858.7768156210968
 20
4206.6841183083316
 30
0.0
 11
8858.7768156210968
 21
4221.2841183083337
 31
0.0
  0
LINE
  5
1432
  8
OUTLINE
 10
8918.0768156211052
 20
4206.6841183083297
 30
0.0
 11
8918.0768156211052
 21
4219.6841183083334
 31
0.0
  0
LINE
  5
1433
  8
OUTLINE
 10
10128.053093533101
 20
3828.2841183083351
 30
0.0
 11
10756.2530935331
 21
3828.2841183083351
 31
0.0
  0
LINE
  5
1434
  8
OUTLINE
 10
10128.053093533101
 20
4206.6841183083316
 30
0.0
 11
10756.2530935331
 21
4206.6841183083316
 31
0.0
  0
LINE
  5
1435
  8
OUTLINE
 10
10777.4530935331
 20
4197.9841183083327
 30
0.0
 11
10788.3530935331
 21
4229.2841183083337
 31
0.0
  0
LINE
  5
1436
  8
OUTLINE
 10
10777.4530935331
 20
3833.5095118531799
 30
0.0
 11
10788.3530935331
 21
3807.284118308336
 31
0.0
  0
TEXT
  5
1437
  8
TEXT
 10
10638.093287175539
 20
1055.9463551181591
 30
0.0
 40
28.0
  1
available on request
  7
TITLE3
  0
TEXT
  5
1438
  8
TEXT
 10
10638.093287175539
 20
1103.9463551181591
 30
0.0
 40
28.0
  1
Certified dimensions
  7
TITLE3
  0
TEXT
  5
1439
  8
TEXT
 10
10638.093287175539
 20
1151.9463551181591
 30
0.0
 40
28.0
  1
without notice or obligation.
  7
TITLE3
  0
TEXT
  5
143A
  8
TEXT
 10
10638.093287175539
 20
1199.9463551181591
 30
0.0
 40
28.0
  1
specifications at any time
  7
TITLE3
  0
TEXT
  5
143B
  8
TEXT
 10
10638.093287175539
 20
1247.9463551181591
 30
0.0
 40
28.0
  1
the right to change 
  7
TITLE3
  0
TEXT
  5
143C
  8
TEXT
 10
10638.093287175539
 20
1343.9463551181591
 30
0.0
 40
28.0
  1
NOTE
  7
TITLE3
  0
TEXT
  5
143D
  8
TEXT
 10
10638.093287175539
 20
1295.9463551181591
 30
0.0
 40
28.0
  1
The manufacturer reserves
  7
TITLE3
  0
SOLID
  5
143F
  8
DIM
 10
10969.99764896309
 20
4157.7841183083337
 30
0.0
 11
10984.997648963081
 21
4157.7841183083337
 31
0.0
 12
10977.497648963081
 22
4202.7841183083337
 32
0.0
 13
10977.497648963081
 23
4202.7841183083337
 33
0.0
  0
LINE
  5
1440
  8
DIM
 10
10977.497648963081
 20
3875.284118308336
 30
0.0
 11
10977.497648963081
 21
4157.2841183083337
 31
0.0
  0
SOLID
  5
1441
  8
DIM
 10
10969.99764896309
 20
3872.7841183083378
 30
0.0
 11
10984.997648963081
 21
3872.7841183083378
 31
0.0
 12
10977.497648963081
 22
3827.7841183083351
 32
0.0
 13
10977.497648963081
 23
3827.7841183083351
 33
0.0
  0
TEXT
  5
1442
  8
DIM
 10
10948.99638986904
 20
4279.7924774205294
 30
0.0
 40
36.0
  1
26.5
 50
90.0
  7
TITLE3
 72
     1
 11
10930.99638986904
 21
4334.6496202776716
 31
0.0
 73
     2
  0
LINE
  5
1443
  8
DIM
 10
10786.465065313791
 20
3827.7841183083351
 30
0.0
 11
10798.64331221602
 21
3827.7841183083351
 31
0.0
  0
LINE
  5
1444
  8
DIM
 10
10786.465065313791
 20
4202.7841183083337
 30
0.0
 11
10798.64331221602
 21
4202.7841183083337
 31
0.0
  0
LINE
  5
1445
  8
OUTLINE
 10
10128.053093533101
 20
3828.2841183083351
 30
0.0
 11
10128.053093533101
 21
4206.6841183083316
 31
0.0
  0
LINE
  5
1446
  8
OUTLINE
 10
9040.6768156211037
 20
4206.6841183083297
 30
0.0
 11
9040.6768156211037
 21
3828.2841183083351
 31
0.0
  0
LINE
  5
1447
  8
CLEAR
 10
9790.6768156211037
 20
4306.6841183083288
 30
0.0
 11
9790.6768156211037
 21
3828.2841183083351
 31
0.0
  0
LINE
  5
1448
  8
OUTLINE
 10
7954.0768156211034
 20
4206.6841183083316
 30
0.0
 11
7954.0768156211034
 21
3828.2841183083351
 31
0.0
  0
LINE
  5
1449
  8
OUTLINE
 10
7954.0768156211034
 20
3828.2841183083351
 30
0.0
 11
9040.6768156211037
 21
3828.2841183083351
 31
0.0
  0
LINE
  5
144A
  8
CLEAR
 10
7954.0768156211034
 20
1828.2841183083351
 30
0.0
 11
9040.6768156211037
 21
1828.2841183083351
 31
0.0
  0
LINE
  5
144B
  8
OUTLINE
 10
7954.0768156211034
 20
4206.6841183083316
 30
0.0
 11
9040.6768156211037
 21
4206.6841183083297
 31
0.0
  0
LINE
  5
144C
  8
CLEAR
 10
7854.0768156211034
 20
4306.6841183083307
 30
0.0
 11
9790.6768156211037
 21
4306.6841183083288
 31
0.0
  0
LINE
  5
1EA7
  8
OUTLINE
 10
8070.7768156211032
 20
714.94607947175564
 30
0.0
 11
8208.7768156211041
 21
714.94607947175564
 31
0.0
  0
LINE
  5
1EAA
  8
OUTLINE
 10
8783.7768156211041
 20
714.94607947175564
 30
0.0
 11
8921.7768156211041
 21
714.94607947175564
 31
0.0
  0
LINE
  5
1F11
  8
OUTLINE
 10
10756.2530935331
 20
3828.2841183083351
 30
0.0
 11
10756.2530935331
 21
4206.6841183083316
 31
0.0
  0
LINE
  5
1F13
  8
OUTLINE
 10
10790.3530935331
 20
4229.2841183083337
 30
0.0
 11
10788.3530935331
 21
4229.2841183083337
 31
0.0
  0
POINT
  5
1FCC
  8
OUTLINE
 10
8139.7768156211023
 20
4202.7841183083337
 30
0.0
  0
POINT
  5
1FCD
  8
OUTLINE
 10
8139.7768156211023
 20
3827.7841183083351
 30
0.0
  0
POINT
  5
1FCE
  8
OUTLINE
 10
8852.7768156211023
 20
3827.7841183083351
 30
0.0
  0
POINT
  5
1FCF
  8
OUTLINE
 10
8852.7768156211077
 20
4202.7841183083337
 30
0.0
  0
LINE
  5
2469
  8
OUTLINE
 10
7954.0768156211034
 20
1377.246079471756
 30
0.0
 11
9040.6768156211037
 21
1377.246079471756
 31
0.0
  0
LINE
  5
247B
  8
DIM
 10
9189.1054038767888
 20
1104.3101306280601
 30
0.0
 11
9189.1054038767834
 21
1133.984723765898
 31
0.0
  0
LINE
  5
247C
  8
OUTLINE
 10
9040.6768156211037
 20
1377.246079471756
 30
0.0
 11
9040.6768156211037
 21
749.04607947175589
 31
0.0
  0
CIRCLE
  5
247F
  8
OUTLINE
 10
8321.0768156211016
 20
1061.0460794717551
 30
0.0
 40
285.0
  0
ENDSEC
  0
EOF
