  0
SECTION
  2
HEADER
  9
$ACADVER
  1
AC1009
  9
$INSBASE
 10
0.0
 20
0.0
 30
0.0
  9
$EXTMIN
 10
2762.3638623106958
 20
0.0
 30
0.0
  9
$EXTMAX
 10
7780.000000000312
 20
4232.5751036335851
 30
0.0
  9
$LIMMIN
 10
0.0
 20
0.0
  9
$LIMMAX
 10
7780.0
 20
5320.0
  9
$ORTHOMODE
 70
     1
  9
$REGENMODE
 70
     1
  9
$FILLMODE
 70
     1
  9
$QTEXTMODE
 70
     0
  9
$MIRRTEXT
 70
     0
  9
$DRAGMODE
 70
     2
  9
$LTSCALE
 40
250.0
  9
$OSMODE
 70
     0
  9
$ATTMODE
 70
     1
  9
$TEXTSIZE
 40
60.0
  9
$TRACEWID
 40
0.05
  9
$TEXTSTYLE
  7
TITLE3
  9
$CLAYER
  8
DIM
  9
$CELTYPE
  6
BYLAYER
  9
$CECOLOR
 62
   256
  9
$DIMSCALE
 40
1.0
  9
$DIMASZ
 40
0.12
  9
$DIMEXO
 40
0.05
  9
$DIMDLI
 40
0.5
  9
$DIMRND
 40
0.0
  9
$DIMDLE
 40
0.0
  9
$DIMEXE
 40
0.1
  9
$DIMTP
 40
0.1
  9
$DIMTM
 40
0.1
  9
$DIMTXT
 40
0.12
  9
$DIMCEN
 40
0.0
  9
$DIMTSZ
 40
0.0
  9
$DIMTOL
 70
     0
  9
$DIMLIM
 70
     0
  9
$DIMTIH
 70
     1
  9
$DIMTOH
 70
     1
  9
$DIMSE1
 70
     0
  9
$DIMSE2
 70
     0
  9
$DIMTAD
 70
     0
  9
$DIMZIN
 70
     7
  9
$DIMBLK
  1

  9
$DIMASO
 70
     0
  9
$DIMSHO
 70
     0
  9
$DIMPOST
  1

  9
$DIMAPOST
  1
mm
  9
$DIMALT
 70
     0
  9
$DIMALTD
 70
     2
  9
$DIMALTF
 40
25.399999999999999
  9
$DIMLFAC
 40
1.0
  9
$DIMTOFL
 70
     0
  9
$DIMTVP
 40
0.0
  9
$DIMTIX
 70
     0
  9
$DIMSOXD
 70
     0
  9
$DIMSAH
 70
     0
  9
$DIMBLK1
  1

  9
$DIMBLK2
  1

  9
$DIMSTYLE
  2
AM_ANSI
  9
$DIMCLRD
 70
   256
  9
$DIMCLRE
 70
   256
  9
$DIMCLRT
 70
     2
  9
$DIMTFAC
 40
0.71
  9
$DIMGAP
 40
0.06
  9
$LUNITS
 70
     2
  9
$LUPREC
 70
     2
  9
$SKETCHINC
 40
0.1
  9
$FILLETRAD
 40
0.0
  9
$AUNITS
 70
     0
  9
$AUPREC
 70
     2
  9
$MENU
  1
\acad12\support\cnc
  9
$ELEVATION
 40
0.0
  9
$PELEVATION
 40
0.0
  9
$THICKNESS
 40
0.0
  9
$LIMCHECK
 70
     0
  9
$BLIPMODE
 70
     0
  9
$CHAMFERA
 40
0.0
  9
$CHAMFERB
 40
0.0
  9
$SKPOLY
 70
     0
  9
$TDCREATE
 40
2451351.6834390052
  9
$TDUPDATE
 40
2454699.4888061229
  9
$TDINDWG
 40
1.1478971527999999
  9
$TDUSRTIMER
 40
1.1478971527999999
  9
$USRTIMER
 70
     1
  9
$ANGBASE
 50
0.0
  9
$ANGDIR
 70
     0
  9
$PDMODE
 70
     2
  9
$PDSIZE
 40
20.0
  9
$PLINEWID
 40
0.0
  9
$COORDS
 70
     1
  9
$SPLFRAME
 70
     0
  9
$SPLINETYPE
 70
     6
  9
$SPLINESEGS
 70
     8
  9
$ATTDIA
 70
     1
  9
$ATTREQ
 70
     1
  9
$HANDLING
 70
     1
  9
$HANDSEED
  5
41FA
  9
$SURFTAB1
 70
     6
  9
$SURFTAB2
 70
     6
  9
$SURFTYPE
 70
     6
  9
$SURFU
 70
     6
  9
$SURFV
 70
     6
  9
$UCSNAME
  2

  9
$UCSORG
 10
0.0
 20
0.0
 30
0.0
  9
$UCSXDIR
 10
1.0
 20
0.0
 30
0.0
  9
$UCSYDIR
 10
0.0
 20
1.0
 30
0.0
  9
$PUCSNAME
  2

  9
$PUCSORG
 10
0.0
 20
0.0
 30
0.0
  9
$PUCSXDIR
 10
1.0
 20
0.0
 30
0.0
  9
$PUCSYDIR
 10
0.0
 20
1.0
 30
0.0
  9
$USERI1
 70
     0
  9
$USERI2
 70
     0
  9
$USERI3
 70
     0
  9
$USERI4
 70
     0
  9
$USERI5
 70
     0
  9
$USERR1
 40
0.0
  9
$USERR2
 40
0.0
  9
$USERR3
 40
0.0
  9
$USERR4
 40
0.0
  9
$USERR5
 40
0.0
  9
$WORLDVIEW
 70
     0
  9
$SHADEDGE
 70
     3
  9
$SHADEDIF
 70
    70
  9
$TILEMODE
 70
     1
  9
$MAXACTVP
 70
    16
  9
$PLIMCHECK
 70
     0
  9
$PEXTMIN
 10
1.0000000000000000E+020
 20
1.0000000000000000E+020
 30
1.0000000000000000E+020
  9
$PEXTMAX
 10
-1.0000000000000000E+020
 20
-1.0000000000000000E+020
 30
-1.0000000000000000E+020
  9
$PLIMMIN
 10
0.0
 20
0.0
  9
$PLIMMAX
 10
12.0
 20
9.0
  9
$UNITMODE
 70
     0
  9
$VISRETAIN
 70
     0
  9
$PLINEGEN
 70
     0
  9
$PSLTSCALE
 70
     0
  0
ENDSEC
  0
SECTION
  2
TABLES
  0
TABLE
  2
VPORT
 70
     1
  0
VPORT
  2
*ACTIVE
 70
     0
 10
0.0
 20
0.0
 11
1.0
 21
1.0
 12
5640.4743944817019
 22
2251.2258119224239
 13
0.0
 23
0.0
 14
50.0
 24
50.0
 15
100.0
 25
100.0
 16
0.0
 26
0.0
 36
1.0
 17
0.0
 27
0.0
 37
0.0
 40
4538.3767583091822
 41
1.5308953341740219
 42
50.0
 43
0.0
 44
0.0
 50
0.0
 51
0.0
 71
     0
 72
   100
 73
     1
 74
     0
 75
     0
 76
     0
 77
     0
 78
     0
  0
ENDTAB
  0
TABLE
  2
LTYPE
 70
    17
  0
LTYPE
  2
CONTINUOUS
 70
     0
  3
Solid line
 72
    65
 73
     0
 40
0.0
  0
LTYPE
  2
DASHED
 70
     0
  3
__ __ __ __ __ __ __ __ __ __ __ __ __ __ __ __
 72
    65
 73
     2
 40
0.75
 49
0.5
 49
-0.25
  0
LTYPE
  2
PHANTOM2
 70
     0
  3
Phantom (.5x) ___ _ _ ___ _ _ ___ _ _ ___ _ _
 72
    65
 73
     6
 40
1.25
 49
0.625
 49
-0.125
 49
0.125
 49
-0.125
 49
0.125
 49
-0.125
  0
LTYPE
  2
HIDDEN
 70
     0
  3
Hidden __ __ __ __ __ __ __ __ __ __ __ __ __ _
 72
    65
 73
     2
 40
0.375
 49
0.25
 49
-0.125
  0
LTYPE
  2
CENTER
 70
     0
  3
Center ____ _ ____ _ ____ _ ____ _ ____ _ ____
 72
    65
 73
     4
 40
2.0
 49
1.25
 49
-0.25
 49
0.25
 49
-0.25
  0
LTYPE
  2
AM_ISO02W050
 70
     0
  3
__ __ __ __ __ __ __ __ __ __ __ __ __ __ __
 72
    65
 73
     2
 40
7.5
 49
6.0
 49
-1.5
  0
LTYPE
  2
AM_ISO08W050
 70
     0
  3
____ . ____ . ____ . ____ . ____ . ____ . ____
 72
    65
 73
     4
 40
18.0
 49
12.0
 49
-1.5
 49
3.0
 49
-1.5
  0
LTYPE
  2
AM_ISO09W050
 70
     0
  3
_____ . . _____ . . _____ . . ____ .. ____
 72
    65
 73
     6
 40
22.5
 49
12.0
 49
-1.5
 49
3.0
 49
-1.5
 49
3.0
 49
-1.5
  0
LTYPE
  2
AMCONSTR
 70
     0
  3
_______________________
 72
    65
 73
     2
 40
9999.0
 49
9999.0
 49
0.0
  0
LTYPE
  2
AM_ISO08W050X2
 70
     0
  3
__ . __ . __ . __ . __ . __
 72
    65
 73
     4
 40
9.0
 49
6.0
 49
-0.75
 49
1.5
 49
-0.75
  0
LTYPE
  2
AM_ISO02W050X2
 70
     0
  3
 _ _ _ _ _ _ _ _ _ _ _ _
 72
    65
 73
     2
 40
3.75
 49
3.0
 49
-0.75
  0
LTYPE
  2
AMZIGZAG
 70
     0
  3
/\/-/\/-/\/-/\/-/\/-/\/
 72
    65
 73
     2
 40
11.0001
 49
0.0001
 49
-11.0
  0
LTYPE
  2
CENTER2
 70
     0
  3
Center (.5x) ___ _ ___ _ ___ _ ___ _ ___ _ ___
 72
    65
 73
     4
 40
1.125
 49
0.75
 49
-0.125
 49
0.125
 49
-0.125
  0
LTYPE
  2
HIDDEN2
 70
     0
  3
Hidden (.5x) _ _ _ _ _ _ _ _ _ _ _ _ _ _ _ _ _
 72
    65
 73
     2
 40
0.1875
 49
0.125
 49
-0.0625
  0
LTYPE
  2
AMZIGZAG2
 70
     0
  3
/\/-/\/-/\/-/\/-/\/-/\/
 72
    65
 73
     2
 40
0.4401
 49
0.0001
 49
-0.4400000000000002
  0
LTYPE
  2
ACANSTGB
 70
     0
  3
__ . . __ . .
 72
    65
 73
     6
 40
0.35433070866
 49
0.15748031496
 49
-0.03937007874
 49
0.03937007874
 49
-0.03937007874
 49
0.03937007874
 49
-0.03937007874
  0
LTYPE
  2
ACANSTGL
 70
     0
  3
_ _ _ _ _
 72
    65
 73
     2
 40
0.11811023622
 49
0.07874015748
 49
-0.03937007874
  0
ENDTAB
  0
TABLE
  2
LAYER
 70
     6
  0
LAYER
  2
0
 70
     0
 62
     7
  6
CONTINUOUS
  0
LAYER
  2
DIM
 70
     0
 62
     7
  6
CONTINUOUS
  0
LAYER
  2
TEXT
 70
     0
 62
   100
  6
CONTINUOUS
  0
LAYER
  2
OUTLINE
 70
     0
 62
     7
  6
CONTINUOUS
  0
LAYER
  2
OVERLAY-A3
 70
     0
 62
     7
  6
CONTINUOUS
  0
LAYER
  2
CLEAR
 70
     0
 62
     1
  6
PHANTOM2
  0
ENDTAB
  0
TABLE
  2
STYLE
 70
     7
  0
STYLE
  2
STANDARD
 70
     0
 40
0.0
 41
1.0
 50
0.0
 71
     0
 42
0.2
  3
txt
  4

  0
STYLE
  2
ANNOTATIVE
 70
     0
 40
0.0
 41
1.0
 50
0.0
 71
     0
 42
0.2
  3
txt
  4

  0
STYLE
  2
TITLE3
 70
     0
 40
60.0
 41
1.0
 50
0.0
 71
     0
 42
60.0
  3
SIMPLEX
  4

  0
STYLE
  2
SIMPLEX
 70
     0
 40
45.0
 41
1.0
 50
0.0
 71
     0
 42
45.0
  3
simplex
  4

  0
STYLE
  2

 70
     1
 40
0.0
 41
1.0
 50
0.0
 71
     0
 42
60.0
  3
genltshp.shx
  4

  0
STYLE
  2
ACANSTS
 70
     0
 40
1.0
 41
1.0
 50
0.0
 71
     0
 42
60.0
  3
romans.shx
  4

  0
STYLE
  2
ACANSGDT
 70
     0
 40
0.0
 41
1.0
 50
0.0
 71
     0
 42
60.0
  3
amgdt.shx
  4

  0
ENDTAB
  0
TABLE
  2
VIEW
 70
     0
  0
ENDTAB
  0
TABLE
  2
UCS
 70
     0
  0
ENDTAB
  0
TABLE
  2
APPID
 70
    10
  0
APPID
  2
ACAD
 70
     0
  0
APPID
  2
ACADANNOTATIVE
 70
     0
  0
APPID
  2
ACAD_MLEADERVER
 70
     0
  0
APPID
  2
MCAD_NO_VIS
 70
     0
  0
APPID
  2
ACAD_TEMP_GRAPHIC
 70
     0
  0
APPID
  2
AD_DRAW
 70
     0
  0
APPID
  2
ACATTRIBSERVICES
 70
     0
  0
APPID
  2
DESIGNERASSEMBLIES
 70
     0
  0
APPID
  2
ACADM_DIM_EDIT
 70
     0
  0
APPID
  2
AMDT_DM_ADJ
 70
     0
  0
ENDTAB
  0
TABLE
  2
DIMSTYLE
 70
     8
  0
DIMSTYLE
  2
STANDARD
 70
     0
  3

  4

  5

  6

  7

 40
1.0
 41
0.18
 42
0.0625
 43
0.38
 44
0.18
 45
0.0
 46
0.0
 47
0.0
 48
0.0
140
0.18
141
0.09
142
0.0
143
25.399999999999999
144
1.0
145
0.0
146
1.0
147
0.09
 71
     0
 72
     0
 73
     1
 74
     1
 75
     0
 76
     0
 77
     0
 78
     0
170
     0
171
     2
172
     0
173
     0
174
     0
175
     0
176
     0
177
     0
178
     0
  0
DIMSTYLE
  2
ANNOTATIVE
 70
     0
  3

  4

  5

  6

  7

 40
1.0
 41
0.18
 42
0.0625
 43
0.38
 44
0.18
 45
0.0
 46
0.0
 47
0.0
 48
0.0
140
0.18
141
0.09
142
0.0
143
25.399999999999999
144
1.0
145
0.0
146
1.0
147
0.09
 71
     0
 72
     0
 73
     1
 74
     1
 75
     0
 76
     0
 77
     0
 78
     0
170
     0
171
     2
172
     0
173
     0
174
     0
175
     0
176
     0
177
     0
178
     0
  0
DIMSTYLE
  2
AM_ANSI
 70
     0
  3

  4
mm
  5

  6

  7

 40
1.0
 41
0.12
 42
0.05
 43
0.5
 44
0.1
 45
0.0
 46
0.0
 47
0.1
 48
0.1
140
0.12
141
0.0
142
0.0
143
25.399999999999999
144
1.0
145
0.0
146
0.71
147
0.06
 71
     0
 72
     0
 73
     1
 74
     1
 75
     0
 76
     0
 77
     0
 78
     7
170
     0
171
     2
172
     0
173
     0
174
     0
175
     0
176
   256
177
   256
178
     2
  0
DIMSTYLE
  2
AM_ANSI$3
 70
     0
  3

  4
mm
  5

  6

  7

 40
1.0
 41
0.12
 42
0.05
 43
0.5
 44
0.1
 45
0.0
 46
0.0
 47
0.1
 48
0.1
140
0.12
141
0.0
142
0.0
143
25.399999999999999
144
1.0
145
0.0
146
0.71
147
0.06
 71
     0
 72
     0
 73
     1
 74
     1
 75
     0
 76
     0
 77
     0
 78
     7
170
     0
171
     2
172
     0
173
     0
174
     0
175
     0
176
   256
177
   256
178
     2
  0
DIMSTYLE
  2
AM_ANSI$4
 70
     0
  3

  4
mm
  5

  6

  7

 40
1.0
 41
0.12
 42
0.05
 43
0.5
 44
0.1
 45
0.0
 46
0.0
 47
0.1
 48
0.1
140
0.12
141
0.0
142
0.0
143
25.399999999999999
144
1.0
145
0.0
146
0.71
147
0.06
 71
     0
 72
     0
 73
     1
 74
     1
 75
     0
 76
     0
 77
     0
 78
     7
170
     0
171
     2
172
     0
173
     0
174
     0
175
     0
176
   256
177
   256
178
     2
  0
DIMSTYLE
  2
AM_ANSI$7
 70
     0
  3

  4
mm
  5

  6

  7

 40
1.0
 41
0.12
 42
0.05
 43
0.5
 44
0.1
 45
0.0
 46
0.0
 47
0.1
 48
0.1
140
0.12
141
0.0
142
0.0
143
25.399999999999999
144
1.0
145
0.0
146
0.71
147
0.06
 71
     0
 72
     0
 73
     1
 74
     1
 75
     0
 76
     0
 77
     0
 78
     7
170
     0
171
     2
172
     0
173
     0
174
     0
175
     0
176
   256
177
   256
178
     2
  0
DIMSTYLE
  2
AM_ANSI$SF
 70
     0
  3

  4
mm
  5

  6

  7

 40
1.0
 41
0.12
 42
0.05
 43
0.5
 44
0.1
 45
0.0
 46
0.0
 47
0.1
 48
0.1
140
0.12
141
0.0
142
0.0
143
25.399999999999999
144
1.0
145
0.0
146
0.71
147
0.06
 71
     0
 72
     0
 73
     1
 74
     1
 75
     1
 76
     1
 77
     0
 78
     7
170
     0
171
     2
172
     0
173
     0
174
     0
175
     0
176
   256
177
   256
178
     2
  0
DIMSTYLE
  2
AM_ANSI$SH
 70
     0
  3

  4
mm
  5

  6
GENAXEH
  7

 40
1.0
 41
0.12
 42
0.05
 43
0.5
 44
0.1
 45
0.0
 46
0.0
 47
0.1
 48
0.1
140
0.12
141
0.0
142
0.0
143
25.399999999999999
144
1.0
145
0.0
146
0.71
147
0.06
 71
     0
 72
     0
 73
     1
 74
     1
 75
     1
 76
     1
 77
     0
 78
     7
170
     0
171
     2
172
     0
173
     1
174
     0
175
     0
176
   256
177
   256
178
     2
  0
ENDTAB
  0
ENDSEC
  0
SECTION
  2
BLOCKS
  0
BLOCK
  8
0
  2
$MODEL_SPACE
 70
     0
 10
0.0
 20
0.0
 30
0.0
  3
$MODEL_SPACE
  1

  0
ENDBLK
  5
411D
  8
0
  0
BLOCK
 67
     1
  8
0
  2
$PAPER_SPACE
 70
     0
 10
0.0
 20
0.0
 30
0.0
  3
$PAPER_SPACE
  1

  0
ENDBLK
  5
4119
 67
     1
  8
0
  0
BLOCK
  8
0
  2
NEW_BLOCK
 70
     0
 10
0.0
 20
0.0
 30
0.0
  3
NEW_BLOCK
  1

  0
TEXT
  5
3E30
  8
TEXT
 10
27.285946821803002
 20
25.27142175952417
 30
0.0
 40
40.0
  1
available on request
  7
TITLE3
  0
TEXT
  5
3E31
  8
TEXT
 10
27.285946821803002
 20
93.842850330952714
 30
0.0
 40
40.0
  1
Certified dimensions
  7
TITLE3
  0
TEXT
  5
3E32
  8
TEXT
 10
27.285946821803002
 20
162.4142789023812
 30
0.0
 40
40.0
  1
without notice or obligation.
  7
TITLE3
  0
TEXT
  5
3E33
  8
TEXT
 10
27.285946821803002
 20
230.9857074738097
 30
0.0
 40
40.0
  1
specifications at any time
  7
TITLE3
  0
TEXT
  5
3E34
  8
TEXT
 10
27.285946821803002
 20
299.55713604523839
 30
0.0
 40
40.0
  1
the right to change 
  7
TITLE3
  0
TEXT
  5
3E35
  8
TEXT
 10
27.285946821803002
 20
436.69999318809488
 30
0.0
 40
40.0
  1
NOTE
  7
TITLE3
  0
TEXT
  5
3E36
  8
TEXT
 10
27.285946821803002
 20
368.12856461666672
 30
0.0
 40
40.0
  1
The manufacturer reserves
  7
TITLE3
  0
ENDBLK
  5
3E37
  8
0
  0
BLOCK
  8
0
  2
NEW_BLOCK0
 70
     0
 10
0.0
 20
0.0
 30
0.0
  3
NEW_BLOCK0
  1

  0
INSERT
  5
3E3A
  8
DIM
  2
NEW_BLOCK
 10
13.048098169647799
 20
6.0725618626865971
 30
0.0
 41
0.7000000000000455
 42
0.6999999999999993
 43
0.7
  0
ENDBLK
  5
3E3B
  8
0
  0
BLOCK
  8
0
  2
NEW_BLOCK2
 70
     0
 10
0.0
 20
0.0
 30
0.0
  3
NEW_BLOCK2
  1

  0
TEXT
  5
3E3E
  8
TEXT
  6
PHANTOM2
 10
-170.45198281351981
 20
-217.0714660736848
 30
0.0
 40
60.0
  1
1000 min 
 50
90.0
  7
TITLE3
  0
TEXT
  5
3E3F
  8
TEXT
  6
PHANTOM2
 10
-67.594839956376745
 20
-260.05453039737728
 30
0.0
 40
60.0
  1
CLEARANCE
 50
90.0
  7
TITLE3
  0
ENDBLK
  5
3E40
  8
0
  0
BLOCK
  8
0
  2
GENAXEH
 70
     0
 10
0.0
 20
0.0
 30
0.0
  3
GENAXEH
  1

  0
LINE
  5
406E
  8
0
 10
-1.0
 20
0.0
 30
0.0
 11
1.0
 21
0.0
 31
0.0
  0
ENDBLK
  5
4070
  8
0
  0
ENDSEC
  0
SECTION
  2
ENTITIES
  0
TEXT
  5
3E41
  8
TEXT
 10
5831.9540227714588
 20
457.84838755331998
 30
0.0
 40
90.0
  1
IJD 950 (HORIZ.DISCH.)
 41
1.178599218183539
  7
SIMPLEX
 72
     5
 11
7695.8245006702846
 21
457.84838755331998
 31
0.0
  0
LINE
  5
3E42
  8
OUTLINE
 10
4890.2728485343459
 20
2197.108416126538
 30
0.0
 11
4890.2728485343459
 21
1242.3084161265381
 31
0.0
  0
LINE
  5
3E43
  8
OUTLINE
  6
CONTINUOUS
 10
4890.2728485343459
 20
1242.3084161265381
 30
0.0
 11
6564.2728485343441
 21
1242.3084161265381
 31
0.0
  0
LINE
  5
3E44
  8
OUTLINE
 10
6564.2728485343441
 20
2197.108416126538
 30
0.0
 11
4890.2728485343459
 21
2197.108416126538
 31
0.0
  0
LINE
  5
3E45
  8
OUTLINE
 10
6564.2728485343441
 20
1242.3084161265381
 30
0.0
 11
6564.2728485343441
 21
2197.108416126538
 31
0.0
  0
LINE
  5
3E46
  8
OUTLINE
 10
3132.245633185214
 20
2197.108416126538
 30
0.0
 11
4117.2456331852136
 21
2197.108416126538
 31
0.0
  0
LINE
  5
3E47
  8
OUTLINE
 10
3132.245633185214
 20
1242.3084161265319
 30
0.0
 11
3132.245633185214
 21
2197.108416126538
 31
0.0
  0
LINE
  5
3E48
  8
OUTLINE
 10
4117.2456331852136
 20
1242.308416126546
 30
0.0
 11
4117.2456331852136
 21
2197.108416126538
 31
0.0
  0
LINE
  5
3E49
  8
OUTLINE
  6
BYBLOCK
 10
6564.2728485343441
 20
3810.0699099239368
 30
0.0
 11
6564.2728485343441
 21
2825.0699099239391
 31
0.0
  0
LINE
  5
3E4A
  8
OUTLINE
  6
BYBLOCK
 10
4890.2728485343459
 20
3810.0699099239368
 30
0.0
 11
6564.2728485343441
 21
3810.0699099239368
 31
0.0
  0
LINE
  5
3E4B
  8
OUTLINE
  6
BYBLOCK
 10
6564.2728485343441
 20
2825.0699099239391
 30
0.0
 11
4890.2728485343459
 21
2825.0699099239391
 31
0.0
  0
LINE
  5
3E4C
  8
OUTLINE
  6
BYBLOCK
 10
4890.2728485343459
 20
2825.0699099239391
 30
0.0
 11
4890.2728485343459
 21
3810.0699099239368
 31
0.0
  0
ARC
  5
3E4D
  8
OUTLINE
  6
HIDDEN
 10
3451.0824823729931
 20
1724.975142946947
 30
0.0
 40
271.69999999999999
 50
220.9587062676998
 51
264.54176490587002
  0
ARC
  5
3E4E
  8
OUTLINE
  6
HIDDEN
 10
3446.5724823729952
 20
1745.4251429469471
 30
0.0
 40
291.69999999999982
 50
265.81101456591512
 51
309.3509359723995
  0
ARC
  5
3E4F
  8
OUTLINE
  6
HIDDEN
 10
3403.9724823729939
 20
1726.865142946946
 30
0.0
 40
343.69999999999987
 50
42.391993739892321
 51
86.448683708665953
  0
CIRCLE
  5
3E50
  8
OUTLINE
  6
HIDDEN
 10
3425.3524823729949
 20
1725.4051429469471
 30
0.0
 40
210.0
  0
LINE
  5
3E51
  8
OUTLINE
  6
HIDDEN
 10
3165.1524823729951
 20
2069.9051429469469
 30
0.0
 11
3425.2621136520929
 21
2069.9051429469469
 31
0.0
  0
ARC
  5
3E52
  8
OUTLINE
  6
HIDDEN
 10
3408.8324823729949
 20
1743.985142946947
 30
0.0
 40
328.69999999999987
 50
356.88787769324477
 51
40.752941617474242
  0
ARC
  5
3E53
  8
OUTLINE
  6
HIDDEN
 10
3426.6724823729951
 20
1754.785142946947
 30
0.0
 40
311.69999999999982
 50
311.09560821251881
 51
354.71872950388882
  0
LINE
  5
3E54
  8
OUTLINE
  6
HIDDEN
 10
3165.1524823729928
 20
1667.2051429469459
 30
0.0
 11
3165.1524823729951
 21
2069.9051429469469
 31
0.0
  0
ARC
  5
3E55
  8
OUTLINE
  6
HIDDEN
 10
3451.0524823729952
 20
1696.115142946946
 30
0.0
 40
253.6999999999999
 50
186.54326755184911
 51
216.01153635827569
  0
LINE
  5
3E56
  8
OUTLINE
  6
HIDDEN
 10
3199.0050624298442
 20
1667.2051429469459
 30
0.0
 11
3165.1524823729928
 21
1667.2051429469459
 31
0.0
  0
LINE
  5
3E57
  8
OUTLINE
  6
HIDDEN
 10
3197.8569645088692
 20
1667.2051429469459
 30
0.0
 11
3165.1524823729951
 21
1667.2051429469459
 31
0.0
  0
LINE
  5
3E58
  8
OUTLINE
  6
HIDDEN
 10
3425.3524823729958
 20
2069.9051429469469
 30
0.0
 11
3165.1524823729951
 21
2069.9051429469469
 31
0.0
  0
CIRCLE
  5
3E59
  8
OUTLINE
 10
3816.8358489768439
 20
1282.253746714558
 30
0.0
 40
14.0
  0
LINE
  5
3E5A
  8
OUTLINE
  6
CONTINUOUS
 10
3132.449142099887
 20
2067.0491843554869
 30
0.0
 11
3072.449142099887
 21
2067.0491843554869
 31
0.0
  0
LINE
  5
3E5B
  8
OUTLINE
  6
CONTINUOUS
 10
3132.449142099887
 20
1668.049184355488
 30
0.0
 11
3072.449142099887
 21
1668.049184355488
 31
0.0
  0
LINE
  5
3E5C
  8
OUTLINE
  6
CONTINUOUS
 10
3072.449142099887
 20
2067.0491843554869
 30
0.0
 11
3072.449142099887
 21
1668.049184355488
 31
0.0
  0
LINE
  5
3E5D
  8
OUTLINE
  6
CONTINUOUS
 10
6047.7990207759594
 20
3870.363880010967
 30
0.0
 11
5577.7990207759613
 21
3870.363880010967
 31
0.0
  0
LINE
  5
3E5E
  8
OUTLINE
  6
CONTINUOUS
 10
5577.7990207759613
 20
3810.363880010967
 30
0.0
 11
5577.7990207759613
 21
3870.363880010967
 31
0.0
  0
LINE
  5
3E5F
  8
OUTLINE
  6
CONTINUOUS
 10
6047.7990207759594
 20
3810.363880010967
 30
0.0
 11
6047.7990207759594
 21
3870.363880010967
 31
0.0
  0
LINE
  5
3E60
  8
OUTLINE
  6
CONTINUOUS
 10
4890.2728485343459
 20
1267.6200791000899
 30
0.0
 11
4822.1728485343438
 21
1267.6200791000899
 31
0.0
  0
LINE
  5
3E61
  8
OUTLINE
  6
CONTINUOUS
 10
4822.1728485343438
 20
1267.6200791000899
 30
0.0
 11
4822.1728485343438
 21
1295.6200791000899
 31
0.0
  0
LINE
  5
3E62
  8
OUTLINE
  6
CONTINUOUS
 10
4822.1728485343438
 20
1295.6200791000899
 30
0.0
 11
4890.2728485343459
 21
1295.6200791000899
 31
0.0
  0
LINE
  5
3E63
  8
OUTLINE
  6
CONTINUOUS
 10
5009.772848534345
 20
2675.065391065677
 30
0.0
 11
6509.7728485343441
 21
2675.0653910656761
 31
0.0
  0
LINE
  5
3E64
  8
DIM
  6
CONTINUOUS
 62
     0
 10
4890.2728485343459
 20
2237.108416126538
 30
0.0
 11
4890.2728485343459
 21
2442.957820243621
 31
0.0
  0
LINE
  5
3E65
  8
DIM
  6
CONTINUOUS
 62
     0
 10
6564.2728485343441
 20
2237.108416126538
 30
0.0
 11
6564.2728485343441
 21
2442.957820243621
 31
0.0
  0
LINE
  5
3E66
  8
DIM
  6
CONTINUOUS
 62
     0
 10
4950.2728485343459
 20
2402.957820243621
 30
0.0
 11
5574.7556282365558
 21
2402.957820243621
 31
0.0
  0
LINE
  5
3E67
  8
DIM
  6
CONTINUOUS
 62
     0
 10
6504.2728485343459
 20
2402.957820243621
 30
0.0
 11
5879.7900688321379
 21
2402.957820243621
 31
0.0
  0
SOLID
  5
3E68
  8
DIM
  6
CONTINUOUS
 62
     0
 10
4950.2728485343459
 20
2412.957820243621
 30
0.0
 11
4950.2728485343459
 21
2392.957820243621
 31
0.0
 12
4890.2728485343459
 22
2402.957820243621
 32
0.0
 13
4890.2728485343459
 23
2402.957820243621
 33
0.0
  0
SOLID
  5
3E69
  8
DIM
  6
CONTINUOUS
 62
     0
 10
6504.2728485343459
 20
2412.957820243621
 30
0.0
 11
6504.2728485343459
 21
2392.957820243621
 31
0.0
 12
6564.2728485343441
 22
2402.957820243621
 32
0.0
 13
6564.2728485343441
 23
2402.957820243621
 33
0.0
  0
TEXT
  5
3E6A
  8
DIM
  6
CONTINUOUS
 62
     0
 10
5627.2728485343459
 20
2372.957820243621
 30
0.0
 40
60.0
  1
1675
  7
TITLE3
 72
     1
 11
5727.2728485343459
 21
2402.957820243621
 31
0.0
 73
     2
  0
LINE
  5
3E6B
  8
OUTLINE
  6
CONTINUOUS
 10
4822.1728485343438
 20
3144.5431352194209
 30
0.0
 11
4890.2728485343459
 21
3144.5431352194209
 31
0.0
  0
LINE
  5
3E6C
  8
OUTLINE
  6
CONTINUOUS
 10
4890.2728485343459
 20
3116.5431352194209
 30
0.0
 11
4822.1728485343438
 21
3116.5431352194209
 31
0.0
  0
LINE
  5
3E6D
  8
OUTLINE
  6
CONTINUOUS
 10
4822.1728485343438
 20
3116.5431352194209
 30
0.0
 11
4822.1728485343438
 21
3144.5431352194209
 31
0.0
  0
LINE
  5
3E6E
  8
OUTLINE
 10
4267.2456331852136
 20
1264.308416126539
 30
0.0
 11
4267.2456331852136
 21
2166.308416126536
 31
0.0
  0
LINE
  5
3E6F
  8
OUTLINE
  6
CONTINUOUS
 10
4267.2456331852136
 20
1264.308416126539
 30
0.0
 11
4117.2456331852136
 21
1264.308416126539
 31
0.0
  0
LINE
  5
3E70
  8
OUTLINE
  6
CONTINUOUS
 10
4267.2456331852136
 20
2166.308416126536
 30
0.0
 11
4117.2456331852136
 21
2166.3084161265392
 31
0.0
  0
LINE
  5
3E71
  8
OUTLINE
 10
5145.772848534345
 20
1192.3084161265331
 30
0.0
 11
5249.7728485343478
 21
1192.3084161265331
 31
0.0
  0
LINE
  5
3E72
  8
OUTLINE
 10
5145.772848534345
 20
1242.3084161265381
 30
0.0
 11
5145.772848534345
 21
1192.3084161265331
 31
0.0
  0
LINE
  5
3E73
  8
OUTLINE
 10
5249.7728485343478
 20
1192.3084161265331
 30
0.0
 11
5249.7728485343478
 21
1242.3084161265381
 31
0.0
  0
TEXT
  5
3E74
  8
TEXT
  6
CONTINUOUS
 10
5896.6557611277713
 20
220.0
 30
0.0
 40
60.0
  1
15.10.03
 41
0.8888888888888894
  7
TITLE3
 72
     5
 11
6216.6557611277713
 21
220.0
 31
0.0
  0
LINE
  5
3E75
  8
OUTLINE
  6
CONTINUOUS
 10
4890.1068602777714
 20
3159.8796995329408
 30
0.0
 11
4721.87201928793
 21
3752.2524276074591
 31
0.0
  0
ARC
  5
3E76
  8
OUTLINE
  6
CONTINUOUS
 10
4891.4728485343458
 20
3155.0699099239391
 30
0.0
 40
620.79900185801046
 50
90.110752398162234
 51
105.85463470220191
  0
LINE
  5
3E77
  8
OUTLINE
 10
3117.245633185214
 20
1192.3084161265331
 30
0.0
 11
4132.2456331852109
 21
1192.308416126534
 31
0.0
  0
LINE
  5
3E78
  8
OUTLINE
 10
3132.245633185214
 20
1242.3084161265319
 30
0.0
 11
4117.2456331852136
 21
1242.308416126546
 31
0.0
  0
LINE
  5
3E79
  8
OUTLINE
  6
CONTINUOUS
 10
3117.245633185214
 20
1192.3084161265331
 30
0.0
 11
3117.245633185214
 21
1220.3084161265331
 31
0.0
  0
LINE
  5
3E7A
  8
OUTLINE
  6
CONTINUOUS
 10
3139.245633185214
 20
1242.3084161265319
 30
0.0
 11
3117.245633185214
 21
1220.3084161265331
 31
0.0
  0
LINE
  5
3E7B
  8
OUTLINE
  6
CONTINUOUS
 10
4110.2456331852009
 20
1242.308416126546
 30
0.0
 11
4132.2456331852109
 21
1220.3084161265331
 31
0.0
  0
LINE
  5
3E7C
  8
OUTLINE
  6
CONTINUOUS
 10
4132.2456331852109
 20
1192.308416126534
 30
0.0
 11
4132.2456331852109
 21
1220.3084161265331
 31
0.0
  0
LINE
  5
3E7D
  8
OUTLINE
 10
6308.7728485343459
 20
1242.3084161265381
 30
0.0
 11
6308.7728485343459
 21
1192.3084161265331
 31
0.0
  0
LINE
  5
3E7E
  8
OUTLINE
 10
6204.7728485343459
 20
1192.3084161265331
 30
0.0
 11
6204.7728485343459
 21
1242.3084161265381
 31
0.0
  0
LINE
  5
3E7F
  8
OUTLINE
 10
6308.7728485343459
 20
1192.3084161265331
 30
0.0
 11
6204.7728485343459
 21
1192.3084161265331
 31
0.0
  0
LINE
  5
3E80
  8
DIM
  6
CONTINUOUS
 62
     0
 10
3153.245633185215
 20
1152.3084161265331
 30
0.0
 11
3153.245633185215
 21
1067.6627468272011
 31
0.0
  0
LINE
  5
3E81
  8
DIM
  6
CONTINUOUS
 62
     0
 10
4096.2456331852163
 20
1152.3084161265331
 30
0.0
 11
4096.2456331852163
 21
1067.6627468272011
 31
0.0
  0
LINE
  5
3E82
  8
DIM
  6
CONTINUOUS
 62
     0
 10
3213.245633185215
 20
1107.662746827202
 30
0.0
 11
3366.1742046137861
 21
1107.662746827202
 31
0.0
  0
LINE
  5
3E83
  8
DIM
  6
CONTINUOUS
 62
     0
 10
4036.245633185214
 20
1107.662746827202
 30
0.0
 11
3883.317061756642
 21
1107.662746827202
 31
0.0
  0
SOLID
  5
3E84
  8
DIM
  6
CONTINUOUS
 62
     0
 10
3213.245633185215
 20
1117.662746827202
 30
0.0
 11
3213.245633185215
 21
1097.662746827202
 31
0.0
 12
3153.245633185215
 22
1107.662746827202
 32
0.0
 13
3153.245633185215
 23
1107.662746827202
 33
0.0
  0
SOLID
  5
3E85
  8
DIM
  6
CONTINUOUS
 62
     0
 10
4036.245633185214
 20
1117.662746827202
 30
0.0
 11
4036.245633185214
 21
1097.662746827202
 31
0.0
 12
4096.2456331852163
 22
1107.662746827202
 32
0.0
 13
4096.2456331852163
 23
1107.662746827202
 33
0.0
  0
LINE
  5
3E86
  8
DIM
  6
CONTINUOUS
 62
     0
 10
4096.2456331852163
 20
1152.3084161265331
 30
0.0
 11
4096.2456331852163
 21
1067.6627468272011
 31
0.0
  0
LINE
  5
3E87
  8
DIM
  6
CONTINUOUS
 62
     0
 10
4132.2456331852109
 20
1152.3084161265331
 30
0.0
 11
4132.2456331852109
 21
1067.6627468272011
 31
0.0
  0
LINE
  5
3E88
  8
DIM
  6
CONTINUOUS
 62
     0
 10
4036.245633185214
 20
1107.662746827202
 30
0.0
 11
3968.245633185214
 21
1107.662746827202
 31
0.0
  0
LINE
  5
3E89
  8
DIM
  6
CONTINUOUS
 62
     0
 10
4192.2456331852163
 20
1107.662746827202
 30
0.0
 11
4252.2456331852118
 21
1107.662746827202
 31
0.0
  0
SOLID
  5
3E8A
  8
DIM
  6
CONTINUOUS
 62
     0
 10
4036.245633185214
 20
1117.662746827202
 30
0.0
 11
4036.245633185214
 21
1097.662746827202
 31
0.0
 12
4096.2456331852163
 22
1107.662746827202
 32
0.0
 13
4096.2456331852163
 23
1107.662746827202
 33
0.0
  0
SOLID
  5
3E8B
  8
DIM
  6
CONTINUOUS
 62
     0
 10
4192.2456331852163
 20
1117.662746827202
 30
0.0
 11
4192.2456331852163
 21
1097.662746827202
 31
0.0
 12
4132.2456331852109
 22
1107.662746827202
 32
0.0
 13
4132.2456331852109
 23
1107.662746827202
 33
0.0
  0
LINE
  5
3E8C
  8
DIM
  6
CONTINUOUS
 62
     0
 10
3153.245633185215
 20
1152.3084161265331
 30
0.0
 11
3153.245633185215
 21
1067.6627468272011
 31
0.0
  0
LINE
  5
3E8D
  8
DIM
  6
CONTINUOUS
 62
     0
 10
3117.245633185214
 20
1152.3084161265331
 30
0.0
 11
3117.245633185214
 21
1067.6627468272011
 31
0.0
  0
LINE
  5
3E8E
  8
DIM
  6
CONTINUOUS
 62
     0
 10
3213.245633185215
 20
1107.662746827202
 30
0.0
 11
3273.245633185215
 21
1107.662746827202
 31
0.0
  0
LINE
  5
3E8F
  8
DIM
  6
CONTINUOUS
 62
     0
 10
3057.245633185214
 20
1107.662746827202
 30
0.0
 11
2997.2456331852131
 21
1107.662746827202
 31
0.0
  0
SOLID
  5
3E90
  8
DIM
  6
CONTINUOUS
 62
     0
 10
3213.245633185215
 20
1117.662746827202
 30
0.0
 11
3213.245633185215
 21
1097.662746827202
 31
0.0
 12
3153.245633185215
 22
1107.662746827202
 32
0.0
 13
3153.245633185215
 23
1107.662746827202
 33
0.0
  0
SOLID
  5
3E91
  8
DIM
  6
CONTINUOUS
 62
     0
 10
3057.245633185214
 20
1117.662746827202
 30
0.0
 11
3057.245633185214
 21
1097.662746827202
 31
0.0
 12
3117.245633185214
 22
1107.662746827202
 32
0.0
 13
3117.245633185214
 23
1107.662746827202
 33
0.0
  0
LINE
  5
3E92
  8
DIM
  6
CONTINUOUS
 62
     0
 10
3128.245633185214
 20
1152.3084161265331
 30
0.0
 11
3128.245633185214
 21
974.01470509275714
 31
0.0
  0
LINE
  5
3E93
  8
DIM
  6
CONTINUOUS
 62
     0
 10
4121.2456331852127
 20
1152.3084161265331
 30
0.0
 11
4121.2456331852127
 21
974.01470509275714
 31
0.0
  0
LINE
  5
3E94
  8
DIM
  6
CONTINUOUS
 62
     0
 10
3188.245633185214
 20
1014.014705092755
 30
0.0
 11
3366.1742046137861
 21
1014.014705092755
 31
0.0
  0
LINE
  5
3E95
  8
DIM
  6
CONTINUOUS
 62
     0
 10
4061.245633185214
 20
1014.014705092755
 30
0.0
 11
3883.317061756642
 21
1014.014705092755
 31
0.0
  0
SOLID
  5
3E96
  8
DIM
  6
CONTINUOUS
 62
     0
 10
3188.245633185214
 20
1024.0147050927569
 30
0.0
 11
3188.245633185214
 21
1004.014705092757
 31
0.0
 12
3128.245633185214
 22
1014.014705092755
 32
0.0
 13
3128.245633185214
 23
1014.014705092755
 33
0.0
  0
SOLID
  5
3E97
  8
DIM
  6
CONTINUOUS
 62
     0
 10
4061.245633185214
 20
1024.0147050927569
 30
0.0
 11
4061.245633185214
 21
1004.014705092757
 31
0.0
 12
4121.2456331852127
 22
1014.014705092755
 32
0.0
 13
4121.2456331852127
 23
1014.014705092755
 33
0.0
  0
LINE
  5
3E98
  8
DIM
  6
CONTINUOUS
 62
     0
 10
3128.245633185214
 20
1144.546854945198
 30
0.0
 11
3128.245633185214
 21
974.01470509275714
 31
0.0
  0
LINE
  5
3E99
  8
DIM
  6
CONTINUOUS
 62
     0
 10
3117.245633185214
 20
1152.3084161265331
 30
0.0
 11
3117.245633185214
 21
974.01470509275714
 31
0.0
  0
LINE
  5
3E9A
  8
DIM
  6
CONTINUOUS
 62
     0
 10
3188.245633185214
 20
1014.014705092755
 30
0.0
 11
3248.245633185215
 21
1014.014705092755
 31
0.0
  0
LINE
  5
3E9B
  8
DIM
  6
CONTINUOUS
 62
     0
 10
3057.245633185214
 20
1014.014705092755
 30
0.0
 11
2997.2456331852131
 21
1014.014705092755
 31
0.0
  0
SOLID
  5
3E9C
  8
DIM
  6
CONTINUOUS
 62
     0
 10
3188.245633185214
 20
1024.0147050927569
 30
0.0
 11
3188.245633185214
 21
1004.014705092757
 31
0.0
 12
3128.245633185214
 22
1014.014705092755
 32
0.0
 13
3128.245633185214
 23
1014.014705092755
 33
0.0
  0
SOLID
  5
3E9D
  8
DIM
  6
CONTINUOUS
 62
     0
 10
3057.245633185214
 20
1024.0147050927569
 30
0.0
 11
3057.245633185214
 21
1004.014705092757
 31
0.0
 12
3117.245633185214
 22
1014.014705092755
 32
0.0
 13
3117.245633185214
 23
1014.014705092755
 33
0.0
  0
LINE
  5
3E9E
  8
DIM
  6
CONTINUOUS
 62
     0
 10
4121.2456331852127
 20
1152.3084161265331
 30
0.0
 11
4121.2456331852127
 21
974.01470509275714
 31
0.0
  0
LINE
  5
3E9F
  8
DIM
  6
CONTINUOUS
 62
     0
 10
4132.2456331852109
 20
1152.3084161265331
 30
0.0
 11
4132.2456331852109
 21
974.01470509275714
 31
0.0
  0
LINE
  5
3EA0
  8
DIM
  6
CONTINUOUS
 62
     0
 10
4061.245633185214
 20
1014.014705092755
 30
0.0
 11
3993.245633185214
 21
1014.014705092755
 31
0.0
  0
LINE
  5
3EA1
  8
DIM
  6
CONTINUOUS
 62
     0
 10
4192.2456331852163
 20
1014.014705092755
 30
0.0
 11
4252.2456331852118
 21
1014.014705092755
 31
0.0
  0
SOLID
  5
3EA2
  8
DIM
  6
CONTINUOUS
 62
     0
 10
4061.245633185214
 20
1024.0147050927569
 30
0.0
 11
4061.245633185214
 21
1004.014705092757
 31
0.0
 12
4121.2456331852127
 22
1014.014705092755
 32
0.0
 13
4121.2456331852127
 23
1014.014705092755
 33
0.0
  0
SOLID
  5
3EA3
  8
DIM
  6
CONTINUOUS
 62
     0
 10
4192.2456331852163
 20
1024.0147050927569
 30
0.0
 11
4192.2456331852163
 21
1004.014705092757
 31
0.0
 12
4132.2456331852109
 22
1014.014705092755
 32
0.0
 13
4132.2456331852109
 23
1014.014705092755
 33
0.0
  0
LINE
  5
3EA4
  8
DIM
  6
CONTINUOUS
 62
     0
 10
5197.7728485343459
 20
1152.3084161265331
 30
0.0
 11
5197.7728485343459
 21
1024.090786343972
 31
0.0
  0
LINE
  5
3EA5
  8
DIM
  6
CONTINUOUS
 62
     0
 10
6256.7728485343459
 20
1152.3084161265331
 30
0.0
 11
6256.7728485343459
 21
1024.090786343972
 31
0.0
  0
LINE
  5
3EA6
  8
DIM
  6
CONTINUOUS
 62
     0
 10
5257.7728485343459
 20
1064.090786343972
 30
0.0
 11
5445.8442771057753
 21
1064.090786343972
 31
0.0
  0
LINE
  5
3EA7
  8
DIM
  6
CONTINUOUS
 62
     0
 10
6196.7728485343459
 20
1064.090786343972
 30
0.0
 11
6008.7014199629184
 21
1064.090786343972
 31
0.0
  0
SOLID
  5
3EA8
  8
DIM
  6
CONTINUOUS
 62
     0
 10
5257.7728485343459
 20
1074.0907863439711
 30
0.0
 11
5257.7728485343459
 21
1054.090786343972
 31
0.0
 12
5197.7728485343459
 22
1064.090786343972
 32
0.0
 13
5197.7728485343459
 23
1064.090786343972
 33
0.0
  0
SOLID
  5
3EA9
  8
DIM
  6
CONTINUOUS
 62
     0
 10
6196.7728485343459
 20
1074.0907863439711
 30
0.0
 11
6196.7728485343459
 21
1054.090786343972
 31
0.0
 12
6256.7728485343459
 22
1064.090786343972
 32
0.0
 13
6256.7728485343459
 23
1064.090786343972
 33
0.0
  0
LINE
  5
3EAA
  8
DIM
  6
CONTINUOUS
 62
     0
 10
5197.7728485343459
 20
1152.3084161265331
 30
0.0
 11
5197.7728485343459
 21
1024.090786343972
 31
0.0
  0
LINE
  5
3EAB
  8
DIM
  6
CONTINUOUS
 62
     0
 10
4891.9728485343439
 20
1203.908416126538
 30
0.0
 11
4891.9728485343439
 21
1024.090786343972
 31
0.0
  0
LINE
  5
3EAC
  8
DIM
  6
CONTINUOUS
 62
     0
 10
5257.7728485343459
 20
1064.090786343972
 30
0.0
 11
5317.7728485343459
 21
1064.090786343972
 31
0.0
  0
LINE
  5
3EAD
  8
DIM
  6
CONTINUOUS
 62
     0
 10
4831.9728485343458
 20
1064.090786343972
 30
0.0
 11
4771.9728485343448
 21
1064.090786343972
 31
0.0
  0
SOLID
  5
3EAE
  8
DIM
  6
CONTINUOUS
 62
     0
 10
5257.7728485343459
 20
1074.0907863439711
 30
0.0
 11
5257.7728485343459
 21
1054.090786343972
 31
0.0
 12
5197.7728485343459
 22
1064.090786343972
 32
0.0
 13
5197.7728485343459
 23
1064.090786343972
 33
0.0
  0
SOLID
  5
3EAF
  8
DIM
  6
CONTINUOUS
 62
     0
 10
4831.9728485343458
 20
1074.0907863439711
 30
0.0
 11
4831.9728485343458
 21
1054.090786343972
 31
0.0
 12
4891.9728485343439
 22
1064.090786343972
 32
0.0
 13
4891.9728485343439
 23
1064.090786343972
 33
0.0
  0
LINE
  5
3EB0
  8
DIM
  6
CONTINUOUS
 62
     0
 10
6256.7728485343459
 20
1152.3084161265331
 30
0.0
 11
6256.7728485343459
 21
1024.090786343972
 31
0.0
  0
LINE
  5
3EB1
  8
DIM
  6
CONTINUOUS
 62
     0
 10
6562.5728485343461
 20
1203.908416126538
 30
0.0
 11
6562.5728485343461
 21
1024.090786343972
 31
0.0
  0
LINE
  5
3EB2
  8
DIM
  6
CONTINUOUS
 62
     0
 10
6196.7728485343459
 20
1064.090786343972
 30
0.0
 11
6136.7728485343459
 21
1064.090786343972
 31
0.0
  0
LINE
  5
3EB3
  8
DIM
  6
CONTINUOUS
 62
     0
 10
6622.5728485343461
 20
1064.090786343972
 30
0.0
 11
6682.5728485343461
 21
1064.090786343972
 31
0.0
  0
SOLID
  5
3EB4
  8
DIM
  6
CONTINUOUS
 62
     0
 10
6196.7728485343459
 20
1074.0907863439711
 30
0.0
 11
6196.7728485343459
 21
1054.090786343972
 31
0.0
 12
6256.7728485343459
 22
1064.090786343972
 32
0.0
 13
6256.7728485343459
 23
1064.090786343972
 33
0.0
  0
SOLID
  5
3EB5
  8
DIM
  6
CONTINUOUS
 62
     0
 10
6622.5728485343461
 20
1074.0907863439711
 30
0.0
 11
6622.5728485343461
 21
1054.090786343972
 31
0.0
 12
6562.5728485343461
 22
1064.090786343972
 32
0.0
 13
6562.5728485343461
 23
1064.090786343972
 33
0.0
  0
LINE
  5
3EB6
  8
OUTLINE
  6
CONTINUOUS
 10
5009.772848534345
 20
2675.065391065677
 30
0.0
 11
5009.772848534345
 21
2825.0699099239391
 31
0.0
  0
LINE
  5
3EB7
  8
OUTLINE
  6
CONTINUOUS
 10
6509.7728485343441
 20
2675.0653910656761
 30
0.0
 11
6509.7728485343441
 21
2825.0699099239391
 31
0.0
  0
CIRCLE
  5
3EB8
  8
OUTLINE
 10
4060.842585575183
 20
2082.5907379343198
 30
0.0
 40
25.19999999999936
  0
CIRCLE
  5
3EB9
  8
OUTLINE
 10
3978.3425855751839
 20
1368.220737934322
 30
0.0
 40
25.19999999999936
  0
LINE
  5
3EBA
  8
OUTLINE
 10
4869.0728485343443
 20
1393.420737934322
 30
0.0
 11
4869.0728485343443
 21
1343.0207379343231
 31
0.0
  0
LINE
  5
3EBB
  8
OUTLINE
 10
4846.0728485343443
 20
1393.420737934322
 30
0.0
 11
4846.0728485343443
 21
1343.0207379343231
 31
0.0
  0
LINE
  5
3EBC
  8
OUTLINE
 10
4819.0728485343443
 20
1389.720737934322
 30
0.0
 11
4819.0728485343443
 21
1346.720737934322
 31
0.0
  0
LINE
  5
3EBD
  8
OUTLINE
  6
DASHED
 10
4869.0728485343443
 20
1349.2207379343231
 30
0.0
 11
4890.2728485343459
 21
1349.2207379343231
 31
0.0
  0
LINE
  5
3EBE
  8
OUTLINE
 10
4820.5728485343443
 20
1345.220737934322
 30
0.0
 11
4846.0728485343443
 21
1345.220737934322
 31
0.0
  0
LINE
  5
3EBF
  8
OUTLINE
 10
4846.0728485343443
 20
1342.7207379343231
 30
0.0
 11
4869.0728485343443
 21
1342.7207379343231
 31
0.0
  0
LINE
  5
3EC0
  8
OUTLINE
 10
4819.0728485343443
 20
1346.720737934322
 30
0.0
 11
4820.5728485343443
 21
1345.220737934322
 31
0.0
  0
LINE
  5
3EC1
  8
OUTLINE
 10
4820.5728485343443
 20
1391.220737934322
 30
0.0
 11
4846.0728485343443
 21
1391.220737934322
 31
0.0
  0
LINE
  5
3EC2
  8
OUTLINE
  6
DASHED
 10
4869.0728485343443
 20
1387.2207379343211
 30
0.0
 11
4890.2728485343459
 21
1387.2207379343211
 31
0.0
  0
LINE
  5
3EC3
  8
OUTLINE
 10
4846.0728485343443
 20
1393.720737934322
 30
0.0
 11
4869.0728485343443
 21
1393.720737934322
 31
0.0
  0
LINE
  5
3EC4
  8
OUTLINE
 10
4819.0728485343443
 20
1389.720737934322
 30
0.0
 11
4820.5728485343443
 21
1391.220737934322
 31
0.0
  0
LINE
  5
3EC5
  8
OUTLINE
 10
4819.0728485343443
 20
2104.0907379343198
 30
0.0
 11
4819.0728485343443
 21
2061.0907379343198
 31
0.0
  0
LINE
  5
3EC6
  8
OUTLINE
 10
4846.0728485343443
 20
2107.7907379343201
 30
0.0
 11
4846.0728485343443
 21
2057.3907379343209
 31
0.0
  0
LINE
  5
3EC7
  8
OUTLINE
 10
4869.0728485343443
 20
2107.7907379343201
 30
0.0
 11
4869.0728485343443
 21
2057.3907379343209
 31
0.0
  0
LINE
  5
3EC8
  8
OUTLINE
  6
DASHED
 10
4869.0728485343443
 20
2063.5907379343221
 30
0.0
 11
4890.2728485343478
 21
2063.5907379343221
 31
0.0
  0
LINE
  5
3EC9
  8
OUTLINE
 10
4820.5728485343443
 20
2059.5907379343221
 30
0.0
 11
4846.0728485343443
 21
2059.5907379343221
 31
0.0
  0
LINE
  5
3ECA
  8
OUTLINE
 10
4846.0728485343443
 20
2057.0907379343221
 30
0.0
 11
4869.0728485343443
 21
2057.0907379343221
 31
0.0
  0
LINE
  5
3ECB
  8
OUTLINE
 10
4819.0728485343443
 20
2061.0907379343221
 30
0.0
 11
4820.5728485343443
 21
2059.5907379343221
 31
0.0
  0
LINE
  5
3ECC
  8
OUTLINE
  6
DASHED
 10
4869.0728485343443
 20
2101.5907379343212
 30
0.0
 11
4890.2728485343478
 21
2101.5907379343212
 31
0.0
  0
LINE
  5
3ECD
  8
OUTLINE
 10
4820.5728485343443
 20
2105.5907379343212
 30
0.0
 11
4846.0728485343443
 21
2105.5907379343212
 31
0.0
  0
LINE
  5
3ECE
  8
OUTLINE
 10
4846.0728485343443
 20
2108.0907379343212
 30
0.0
 11
4869.0728485343443
 21
2108.0907379343212
 31
0.0
  0
LINE
  5
3ECF
  8
OUTLINE
 10
4819.0728485343443
 20
2104.0907379343198
 30
0.0
 11
4820.5728485343443
 21
2105.5907379343212
 31
0.0
  0
TEXT
  5
3ED0
  8
OVERLAY-A3
  6
CONTINUOUS
 62
     0
 10
2885.044993970143
 20
980.62232131512394
 30
0.0
 40
60.0
  1
11
  7
TITLE3
  0
TEXT
  5
3ED1
  8
OVERLAY-A3
  6
CONTINUOUS
 62
     0
 10
2868.9328673382388
 20
1078.012676628093
 30
0.0
 40
60.0
  1
36
  7
TITLE3
  0
TEXT
  5
3ED2
  8
OVERLAY-A3
  6
CONTINUOUS
 62
     0
 10
4288.6755629291647
 20
990.22616236431543
 30
0.0
 40
60.0
  1
11
  7
TITLE3
  0
TEXT
  5
3ED3
  8
OVERLAY-A3
  6
CONTINUOUS
 62
     0
 10
3406.1742046137852
 20
984.01470509275714
 30
0.0
 40
60.0
  1
997 CTRS
  7
TITLE3
  0
TEXT
  5
3ED4
  8
OVERLAY-A3
  6
CONTINUOUS
 62
     0
 10
3406.1742046137852
 20
1077.6627468272
 30
0.0
 40
60.0
  1
947 CTRS
  7
TITLE3
  0
TEXT
  5
3ED5
  8
OVERLAY-A3
  6
CONTINUOUS
 62
     0
 10
4275.0967681147113
 20
1083.468441563758
 30
0.0
 40
60.0
  1
36
  7
TITLE3
  0
TEXT
  5
3ED6
  8
OVERLAY-A3
  6
CONTINUOUS
 62
     0
 10
4967.7299913914903
 20
1034.090786343972
 30
0.0
 40
60.0
  1
308
  7
TITLE3
  0
TEXT
  5
3ED7
  8
OVERLAY-A3
  6
CONTINUOUS
 62
     0
 10
6332.5299913914887
 20
1034.090786343972
 30
0.0
 40
60.0
  1
308
  7
TITLE3
  0
TEXT
  5
3ED8
  8
OVERLAY-A3
  6
CONTINUOUS
 62
     0
 10
5485.8442771057753
 20
1034.090786343972
 30
0.0
 40
60.0
  1
1059 CTRS
  7
TITLE3
  0
LINE
  5
3ED9
  8
OUTLINE
 10
4869.0728485343443
 20
2861.0699099239368
 30
0.0
 11
4890.2728485343459
 21
2861.0699099239368
 31
0.0
  0
LINE
  5
3EDA
  8
OUTLINE
 10
4869.0728485343443
 20
2902.0699099239368
 30
0.0
 11
4890.2728485343478
 21
2902.0699099239368
 31
0.0
  0
LINE
  5
3EDB
  8
OUTLINE
 10
4819.0728485343443
 20
2860.0699099239391
 30
0.0
 11
4820.5728485343443
 21
2858.5699099239391
 31
0.0
  0
LINE
  5
3EDC
  8
OUTLINE
 10
4819.0728485343443
 20
2903.0699099239368
 30
0.0
 11
4820.5728485343443
 21
2904.5699099239368
 31
0.0
  0
LINE
  5
3EDD
  8
OUTLINE
 10
4869.0728485343443
 20
2906.7699099239362
 30
0.0
 11
4869.0728485343443
 21
2856.3699099239361
 31
0.0
  0
LINE
  5
3EDE
  8
OUTLINE
 10
4846.0728485343443
 20
2906.7699099239362
 30
0.0
 11
4846.0728485343443
 21
2856.3699099239361
 31
0.0
  0
LINE
  5
3EDF
  8
OUTLINE
 10
4846.0728485343443
 20
2856.0699099239382
 30
0.0
 11
4869.0728485343443
 21
2856.0699099239382
 31
0.0
  0
LINE
  5
3EE0
  8
OUTLINE
 10
4820.5728485343443
 20
2858.5699099239391
 30
0.0
 11
4846.0728485343443
 21
2858.5699099239391
 31
0.0
  0
LINE
  5
3EE1
  8
OUTLINE
 10
4846.0728485343443
 20
2907.0699099239359
 30
0.0
 11
4869.0728485343443
 21
2907.0699099239359
 31
0.0
  0
LINE
  5
3EE2
  8
OUTLINE
 10
4820.5728485343443
 20
2904.5699099239368
 30
0.0
 11
4846.0728485343443
 21
2904.5699099239368
 31
0.0
  0
LINE
  5
3EE3
  8
OUTLINE
 10
4819.0728485343443
 20
2903.0699099239368
 30
0.0
 11
4819.0728485343443
 21
2860.0699099239359
 31
0.0
  0
LINE
  5
3EE4
  8
OUTLINE
 10
4846.0728485343443
 20
2989.2699099239362
 30
0.0
 11
4846.0728485343443
 21
2938.869909923937
 31
0.0
  0
LINE
  5
3EE5
  8
OUTLINE
 10
4869.0728485343443
 20
2989.2699099239362
 30
0.0
 11
4869.0728485343443
 21
2938.869909923937
 31
0.0
  0
LINE
  5
3EE6
  8
OUTLINE
 10
4869.0728485343443
 20
2984.5699099239368
 30
0.0
 11
4890.2728485343478
 21
2984.5699099239368
 31
0.0
  0
LINE
  5
3EE7
  8
OUTLINE
 10
4869.0728485343443
 20
2943.5699099239391
 30
0.0
 11
4890.2728485343459
 21
2943.5699099239368
 31
0.0
  0
LINE
  5
3EE8
  8
OUTLINE
 10
4819.0728485343443
 20
2985.5699099239368
 30
0.0
 11
4819.0728485343443
 21
2942.5699099239368
 31
0.0
  0
LINE
  5
3EE9
  8
OUTLINE
 10
4820.5728485343443
 20
2987.0699099239368
 30
0.0
 11
4846.0728485343443
 21
2987.0699099239368
 31
0.0
  0
LINE
  5
3EEA
  8
OUTLINE
 10
4820.5728485343443
 20
2941.0699099239391
 30
0.0
 11
4846.0728485343443
 21
2941.0699099239391
 31
0.0
  0
LINE
  5
3EEB
  8
OUTLINE
 10
4846.0728485343443
 20
2938.5699099239391
 30
0.0
 11
4869.0728485343443
 21
2938.5699099239391
 31
0.0
  0
LINE
  5
3EEC
  8
OUTLINE
 10
4819.0728485343443
 20
2985.5699099239368
 30
0.0
 11
4820.5728485343443
 21
2987.0699099239368
 31
0.0
  0
LINE
  5
3EED
  8
OUTLINE
 10
4819.0728485343443
 20
2942.5699099239391
 30
0.0
 11
4820.5728485343443
 21
2941.0699099239391
 31
0.0
  0
LINE
  5
3EEE
  8
OUTLINE
 10
4846.0728485343443
 20
2989.5699099239359
 30
0.0
 11
4869.0728485343443
 21
2989.5699099239359
 31
0.0
  0
LINE
  5
3EEF
  8
OUTLINE
  6
CONTINUOUS
 10
5145.772848534345
 20
2810.0699099239368
 30
0.0
 11
5145.772848534345
 21
2825.0699099239368
 31
0.0
  0
LINE
  5
3EF0
  8
OUTLINE
  6
CONTINUOUS
 10
5249.7728485343459
 20
2810.0699099239391
 30
0.0
 11
5249.7728485343459
 21
2825.0699099239391
 31
0.0
  0
LINE
  5
3EF1
  8
OUTLINE
  6
CONTINUOUS
 10
5249.7728485343478
 20
2810.0699099239391
 30
0.0
 11
5145.772848534345
 21
2810.0699099239391
 31
0.0
  0
LINE
  5
3EF2
  8
OUTLINE
  6
CONTINUOUS
 10
5249.7728485343459
 20
3825.0699099239382
 30
0.0
 11
5145.772848534345
 21
3825.0699099239382
 31
0.0
  0
LINE
  5
3EF3
  8
OUTLINE
  6
CONTINUOUS
 10
5249.7728485343459
 20
3810.0699099239368
 30
0.0
 11
5249.7728485343459
 21
3825.0699099239382
 31
0.0
  0
LINE
  5
3EF4
  8
OUTLINE
  6
CONTINUOUS
 10
5145.772848534345
 20
3810.0699099239368
 30
0.0
 11
5145.772848534345
 21
3825.0699099239382
 31
0.0
  0
ARC
  5
3EF5
  8
OUTLINE
  6
CONTINUOUS
 10
5197.7728485343459
 20
3814.0699099239368
 30
0.0
 40
6.5800000000000001
 50
322.56198890676831
 51
217.43801109323149
  0
ARC
  5
3EF6
  8
OUTLINE
  6
CONTINUOUS
 10
5197.7728485343459
 20
2821.0699099239391
 30
0.0
 40
6.5800000000000001
 50
142.56198890676811
 51
37.43801109323168
  0
LINE
  5
3EF7
  8
OUTLINE
  6
CONTINUOUS
 10
6204.7728485343459
 20
2810.0699099239391
 30
0.0
 11
6308.7728485343459
 21
2810.0699099239391
 31
0.0
  0
LINE
  5
3EF8
  8
OUTLINE
  6
CONTINUOUS
 10
6308.7728485343459
 20
2810.0699099239368
 30
0.0
 11
6308.7728485343459
 21
2825.0699099239368
 31
0.0
  0
ARC
  5
3EF9
  8
OUTLINE
  6
CONTINUOUS
 10
6256.7728485343459
 20
2821.0699099239391
 30
0.0
 40
6.5800000000000001
 50
142.56198890676811
 51
37.43801109323168
  0
LINE
  5
3EFA
  8
OUTLINE
  6
CONTINUOUS
 10
6204.7728485343459
 20
2810.0699099239391
 30
0.0
 11
6204.7728485343459
 21
2825.0699099239391
 31
0.0
  0
LINE
  5
3EFB
  8
OUTLINE
  6
CONTINUOUS
 10
6204.7728485343459
 20
3825.0699099239382
 30
0.0
 11
6308.7728485343459
 21
3825.0699099239382
 31
0.0
  0
LINE
  5
3EFC
  8
OUTLINE
  6
CONTINUOUS
 10
6308.7728485343459
 20
3810.0699099239368
 30
0.0
 11
6308.7728485343459
 21
3825.0699099239382
 31
0.0
  0
ARC
  5
3EFD
  8
OUTLINE
  6
CONTINUOUS
 10
6256.7728485343459
 20
3814.0699099239368
 30
0.0
 40
6.5800000000000001
 50
322.56198890676831
 51
217.43801109323149
  0
LINE
  5
3EFE
  8
OUTLINE
  6
CONTINUOUS
 10
6204.7728485343459
 20
3810.0699099239368
 30
0.0
 11
6204.7728485343459
 21
3825.0699099239382
 31
0.0
  0
TEXT
  5
3EFF
  8
OVERLAY-A3
 10
5689.8258480921832
 20
221.6624277202018
 30
0.0
 40
48.0
  1
Date
  7
SIMPLEX
  0
TEXT
  5
3F00
  8
OVERLAY-A3
 10
7492.2223847472042
 20
259.00660404682242
 30
0.0
 40
48.0
  1
Revision
 41
0.7812095035934773
  7
SIMPLEX
 72
     5
 11
7702.9257480021297
 21
259.00660404682242
 31
0.0
  0
LINE
  5
3F01
  8
OVERLAY-A3
 10
7468.9826999803199
 20
41.684985696634271
 30
0.0
 11
7468.982699980319
 21
336.53731141709312
 31
0.0
  0
LINE
  5
3F02
  8
OVERLAY-A3
 10
5638.7030589142951
 20
650.4261343402211
 30
0.0
 11
5638.7030589142951
 21
41.684985696634271
 31
0.0
  0
LINE
  5
3F03
  8
OVERLAY-A3
 10
6833.8273560261878
 20
41.684985696634271
 30
0.0
 11
6833.8273560261878
 21
336.53731141709312
 31
0.0
  0
LINE
  5
3F04
  8
OVERLAY-A3
 10
6833.8273560261869
 20
186.62519853892741
 30
0.0
 11
5638.7030589142951
 21
186.62519853892741
 31
0.0
  0
LINE
  5
3F05
  8
OVERLAY-A3
 10
7723.1509304756837
 20
336.53731141709312
 30
0.0
 11
5638.7030589142951
 21
336.53731141709312
 31
0.0
  0
LINE
  5
3F06
  8
OVERLAY-A3
 10
5638.7030589142951
 20
41.684985696634271
 30
0.0
 11
7722.5559161189822
 21
41.684985696634271
 31
0.0
  0
LINE
  5
3F07
  8
OVERLAY-A3
 10
7722.5559161189822
 20
41.684985696634271
 30
0.0
 11
7722.5559161189822
 21
650.4261343402211
 31
0.0
  0
LINE
  5
3F08
  8
OVERLAY-A3
 10
7722.5559161189822
 20
650.4261343402211
 30
0.0
 11
5638.7030589142951
 21
650.4261343402211
 31
0.0
  0
TEXT
  5
3F09
  8
OVERLAY-A3
 10
5688.9664382062192
 20
95.844976130715395
 30
0.0
 40
40.0
  1
Scale
 41
1.3701747965659721
  7
SIMPLEX
 72
     5
 11
5889.9254083692276
 21
95.844976130715395
 31
0.0
  0
TEXT
  5
3F0A
  8
OVERLAY-A3
 10
6949.7182472015938
 20
257.78686301341941
 30
0.0
 40
40.0
  1
Drawing No.
  7
SIMPLEX
 72
     2
 11
7298.2896757730232
 21
257.78686301341941
 31
0.0
  0
LINE
  5
3F0B
  8
OVERLAY-A3
 10
2762.3638623106958
 20
0.0
 30
0.0
 11
7780.000000000312
 21
0.0
 31
0.0
  0
LINE
  5
3F0C
  8
OVERLAY-A3
 10
7780.000000000312
 20
0.0
 30
0.0
 11
7780.000000000312
 21
4232.5751036335851
 31
0.0
  0
LINE
  5
3F0D
  8
OVERLAY-A3
 10
7780.000000000312
 20
4232.5751036335851
 30
0.0
 11
2762.3638623106958
 21
4232.5751036335851
 31
0.0
  0
LINE
  5
3F0E
  8
OVERLAY-A3
 10
2762.3638623106958
 20
4232.5751036335851
 30
0.0
 11
2762.3638623106958
 21
0.0
 31
0.0
  0
TEXT
  5
3F0F
  8
TEXT
 10
7002.3939432988991
 20
105.89207890151179
 30
0.0
 40
60.0
  1
IJD950
  7
TITLE3
  0
TEXT
  5
3F10
  8
TEXT
 10
5972.344661844957
 20
95.388484820501589
 30
0.0
 40
60.0
  1
1:20
  7
TITLE3
  0
LINE
  5
3F11
  8
DIM
 62
     0
 10
4850.2728485343459
 20
2197.108416126538
 30
0.0
 11
4624.039822693715
 21
2197.108416126538
 31
0.0
  0
LINE
  5
3F12
  8
DIM
 62
     0
 10
5105.7728485343459
 20
1192.3084161265331
 30
0.0
 11
4624.0398226937123
 21
1192.3084161265331
 31
0.0
  0
LINE
  5
3F13
  8
DIM
 62
     0
 10
4664.039822693715
 20
2137.108416126538
 30
0.0
 11
4664.0398226937141
 21
1834.7084161265359
 31
0.0
  0
LINE
  5
3F14
  8
DIM
 62
     0
 10
4664.0398226937141
 20
1252.3084161265331
 30
0.0
 11
4664.0398226937141
 21
1554.7084161265359
 31
0.0
  0
SOLID
  5
3F15
  8
DIM
 62
     0
 10
4654.0398226937141
 20
2137.108416126538
 30
0.0
 11
4674.039822693715
 21
2137.108416126538
 31
0.0
 12
4664.039822693715
 22
2197.108416126538
 32
0.0
 13
4664.039822693715
 23
2197.108416126538
 33
0.0
  0
SOLID
  5
3F16
  8
DIM
 62
     0
 10
4654.0398226937141
 20
1252.3084161265331
 30
0.0
 11
4674.0398226937132
 21
1252.3084161265331
 31
0.0
 12
4664.0398226937141
 22
1192.3084161265331
 32
0.0
 13
4664.0398226937141
 23
1192.3084161265331
 33
0.0
  0
TEXT
  5
3F17
  8
DIM
 62
     0
 10
4694.0398226937141
 20
1594.7084161265341
 30
0.0
 40
60.0
  1
1005
 50
90.0
  7
TITLE3
  0
LINE
  5
3F18
  8
CLEAR
 10
4890.2728485343459
 20
3810.0699099239368
 30
0.0
 11
3890.272848534345
 21
3810.0699099239368
 31
0.0
  0
LINE
  5
3F19
  8
CLEAR
 10
4890.2728485343459
 20
2825.0699099239391
 30
0.0
 11
3890.272848534345
 21
2825.0699099239391
 31
0.0
  0
LINE
  5
3F1A
  8
CLEAR
 10
6564.2728485343441
 20
3810.0699099239368
 30
0.0
 11
7564.2728485343441
 21
3810.0699099239368
 31
0.0
  0
LINE
  5
3F1B
  8
CLEAR
 10
6564.2728485343441
 20
2825.0699099239391
 30
0.0
 11
7564.2728485343441
 21
2825.0699099239368
 31
0.0
  0
LINE
  5
3F1C
  8
CLEAR
 10
3890.272848534345
 20
2825.0699099239391
 30
0.0
 11
3890.272848534345
 21
3810.0699099239368
 31
0.0
  0
LINE
  5
3F1D
  8
CLEAR
 10
7564.2728485343441
 20
2825.0699099239368
 30
0.0
 11
7564.2728485343441
 21
3810.0699099239368
 31
0.0
  0
INSERT
  5
3F1E
  8
CLEAR
  2
NEW_BLOCK0
 10
3040.5048489710211
 20
19.701559682020161
 30
0.0
 41
1.5
 42
1.5
 43
1.5
  0
LINE
  5
3F1F
  8
DIM
 10
5810.1995417300741
 20
2805.0853634864111
 30
0.0
 11
5775.9083461080736
 21
2748.680465695631
 31
0.0
  0
LINE
  5
3F20
  8
DIM
 10
5810.1995417300741
 20
2805.0853634864111
 30
0.0
 11
5844.4907373520691
 21
2748.680465695631
 31
0.0
  0
LINE
  5
3F21
  8
DIM
 10
5775.9083461080736
 20
2748.680465695631
 30
0.0
 11
5797.2071251724337
 21
2748.680465695631
 31
0.0
  0
LINE
  5
3F22
  8
DIM
 10
5797.2071251724337
 20
2748.680465695631
 30
0.0
 11
5797.2071251724337
 21
2682.6973824465758
 31
0.0
  0
LINE
  5
3F23
  8
DIM
 10
5823.1919582877117
 20
2748.680465695631
 30
0.0
 11
5823.1919582877117
 21
2682.6973824465758
 31
0.0
  0
LINE
  5
3F24
  8
DIM
 10
5797.2071251724337
 20
2682.6973824465758
 30
0.0
 11
5823.1919582877117
 21
2682.6973824465758
 31
0.0
  0
LINE
  5
3F25
  8
DIM
 10
5844.4907373520691
 20
2748.680465695631
 30
0.0
 11
5823.1919582877117
 21
2748.680465695631
 31
0.0
  0
LINE
  5
3F26
  8
DIM
 10
5797.2071251724337
 20
3785.0464181482889
 30
0.0
 11
5797.2071251724337
 21
3719.0633348992351
 31
0.0
  0
LINE
  5
3F27
  8
DIM
 10
5823.1919582877117
 20
3785.0464181482889
 30
0.0
 11
5823.1919582877117
 21
3719.0633348992351
 31
0.0
  0
LINE
  5
3F28
  8
DIM
 10
5797.2071251724337
 20
3719.0633348992351
 30
0.0
 11
5823.1919582877117
 21
3719.0633348992351
 31
0.0
  0
LINE
  5
3F29
  8
DIM
 10
5810.1995417300741
 20
3841.4513159390722
 30
0.0
 11
5775.9083461080736
 21
3785.0464181482889
 31
0.0
  0
LINE
  5
3F2A
  8
DIM
 10
5775.9083461080736
 20
3785.0464181482889
 30
0.0
 11
5797.2071251724337
 21
3785.0464181482889
 31
0.0
  0
LINE
  5
3F2B
  8
DIM
 10
5844.4907373520691
 20
3785.0464181482889
 30
0.0
 11
5823.1919582877117
 21
3785.0464181482889
 31
0.0
  0
LINE
  5
3F2C
  8
DIM
 10
5810.1995417300741
 20
3841.4513159390722
 30
0.0
 11
5844.4907373520691
 21
3785.0464181482889
 31
0.0
  0
INSERT
  5
3F2D
  8
CLEAR
  2
NEW_BLOCK2
 10
4163.6435596865495
 20
3379.0270474952422
 30
0.0
  0
INSERT
  5
3F2E
  8
CLEAR
  2
NEW_BLOCK2
 10
7580.005023219449
 20
3379.0270474952422
 30
0.0
  0
TEXT
  5
3F2F
  8
TEXT
 10
5446.7290742998812
 20
3266.0048681935382
 30
0.0
 40
90.0
  1
IJD950
  7
TITLE3
  0
TEXT
  5
3F30
  8
TEXT
 62
     0
 10
5446.7290742998812
 20
1652.51582609207
 30
0.0
 40
90.0
  1
IJD950
  7
TITLE3
  0
LINE
  5
3F31
  8
DIM
 62
     0
 10
3072.449142099887
 20
2107.0491843554878
 30
0.0
 11
3072.449142099887
 21
2446.305061463579
 31
0.0
  0
LINE
  5
3F32
  8
DIM
 62
     0
 10
4267.2456331852136
 20
2206.308416126536
 30
0.0
 11
4267.2456331852136
 21
2446.305061463579
 31
0.0
  0
LINE
  5
3F33
  8
DIM
 62
     0
 10
3132.449142099887
 20
2406.305061463579
 30
0.0
 11
3535.5616733568359
 21
2406.305061463579
 31
0.0
  0
LINE
  5
3F34
  8
DIM
 62
     0
 10
4207.2456331852127
 20
2406.305061463579
 30
0.0
 11
3804.1331019282652
 21
2406.305061463579
 31
0.0
  0
SOLID
  5
3F35
  8
DIM
 62
     0
 10
3132.449142099887
 20
2416.305061463579
 30
0.0
 11
3132.449142099887
 21
2396.305061463579
 31
0.0
 12
3072.449142099887
 22
2406.305061463579
 32
0.0
 13
3072.449142099887
 23
2406.305061463579
 33
0.0
  0
SOLID
  5
3F36
  8
DIM
 62
     0
 10
4207.2456331852127
 20
2416.305061463579
 30
0.0
 11
4207.2456331852127
 21
2396.305061463579
 31
0.0
 12
4267.2456331852136
 22
2406.305061463579
 32
0.0
 13
4267.2456331852136
 23
2406.305061463579
 33
0.0
  0
TEXT
  5
3F37
  8
DIM
 62
     0
 10
3575.5616733568359
 20
2376.305061463579
 30
0.0
 40
60.0
  1
1195
  7
TITLE3
  0
LINE
  5
3F38
  8
OUTLINE
 10
5009.772848534345
 20
2166.308416126536
 30
0.0
 11
5009.772848534345
 21
1264.308416126539
 31
0.0
  0
LINE
  5
3F39
  8
OUTLINE
 10
6509.7728485343441
 20
2166.308416126536
 30
0.0
 11
6509.7728485343441
 21
1264.308416126539
 31
0.0
  0
LINE
  5
3F3A
  8
OUTLINE
 10
5009.772848534345
 20
2166.308416126536
 30
0.0
 11
6509.7728485343441
 21
2166.308416126536
 31
0.0
  0
LINE
  5
3F3B
  8
OUTLINE
 10
5009.772848534345
 20
1264.308416126539
 30
0.0
 11
6509.7728485343441
 21
1264.308416126539
 31
0.0
  0
ENDSEC
  0
EOF
