  0
SECTION
  2
HEADER
  9
$ACADVER
  1
AC1009
  9
$INSBASE
 10
0.0
 20
0.0
 30
0.0
  9
$EXTMIN
 10
2539.0417691170351
 20
-0.1623411292239325
 30
-0.0015258207003583
  9
$EXTMAX
 10
7780.2374448726287
 20
4489.7241325137711
 30
0.0000000349246037
  9
$LIMMIN
 10
0.0
 20
0.0
  9
$LIMMAX
 10
7780.0
 20
5320.0
  9
$ORTHOMODE
 70
     1
  9
$REGENMODE
 70
     1
  9
$FILLMODE
 70
     1
  9
$QTEXTMODE
 70
     0
  9
$MIRRTEXT
 70
     0
  9
$DRAGMODE
 70
     2
  9
$LTSCALE
 40
200.0
  9
$OSMODE
 70
     0
  9
$ATTMODE
 70
     1
  9
$TEXTSIZE
 40
60.0
  9
$TRACEWID
 40
0.05
  9
$TEXTSTYLE
  7
TITLE3
  9
$CLAYER
  8
DIM
  9
$CELTYPE
  6
BYLAYER
  9
$CECOLOR
 62
   256
  9
$DIMSCALE
 40
1.0
  9
$DIMASZ
 40
0.12
  9
$DIMEXO
 40
0.05
  9
$DIMDLI
 40
0.5
  9
$DIMRND
 40
0.0
  9
$DIMDLE
 40
0.0
  9
$DIMEXE
 40
0.1
  9
$DIMTP
 40
0.1
  9
$DIMTM
 40
0.1
  9
$DIMTXT
 40
0.12
  9
$DIMCEN
 40
0.0
  9
$DIMTSZ
 40
0.0
  9
$DIMTOL
 70
     0
  9
$DIMLIM
 70
     0
  9
$DIMTIH
 70
     1
  9
$DIMTOH
 70
     1
  9
$DIMSE1
 70
     0
  9
$DIMSE2
 70
     0
  9
$DIMTAD
 70
     0
  9
$DIMZIN
 70
     7
  9
$DIMBLK
  1

  9
$DIMASO
 70
     0
  9
$DIMSHO
 70
     0
  9
$DIMPOST
  1

  9
$DIMAPOST
  1
mm
  9
$DIMALT
 70
     0
  9
$DIMALTD
 70
     2
  9
$DIMALTF
 40
25.399999999999999
  9
$DIMLFAC
 40
1.0
  9
$DIMTOFL
 70
     0
  9
$DIMTVP
 40
0.0
  9
$DIMTIX
 70
     0
  9
$DIMSOXD
 70
     0
  9
$DIMSAH
 70
     0
  9
$DIMBLK1
  1

  9
$DIMBLK2
  1

  9
$DIMSTYLE
  2
AM_ANSI
  9
$DIMCLRD
 70
   256
  9
$DIMCLRE
 70
   256
  9
$DIMCLRT
 70
     2
  9
$DIMTFAC
 40
0.71
  9
$DIMGAP
 40
0.06
  9
$LUNITS
 70
     2
  9
$LUPREC
 70
     2
  9
$SKETCHINC
 40
0.1
  9
$FILLETRAD
 40
0.0
  9
$AUNITS
 70
     0
  9
$AUPREC
 70
     2
  9
$MENU
  1
\acad12\support\cnc
  9
$ELEVATION
 40
0.0
  9
$PELEVATION
 40
0.0
  9
$THICKNESS
 40
0.0
  9
$LIMCHECK
 70
     0
  9
$BLIPMODE
 70
     0
  9
$CHAMFERA
 40
0.0
  9
$CHAMFERB
 40
0.0
  9
$SKPOLY
 70
     0
  9
$TDCREATE
 40
2451093.5873136581
  9
$TDUPDATE
 40
2454699.4828999192
  9
$TDINDWG
 40
2.5253677083000001
  9
$TDUSRTIMER
 40
2.5253673495000002
  9
$USRTIMER
 70
     1
  9
$ANGBASE
 50
0.0
  9
$ANGDIR
 70
     0
  9
$PDMODE
 70
     2
  9
$PDSIZE
 40
20.0
  9
$PLINEWID
 40
0.0
  9
$COORDS
 70
     1
  9
$SPLFRAME
 70
     0
  9
$SPLINETYPE
 70
     6
  9
$SPLINESEGS
 70
     8
  9
$ATTDIA
 70
     1
  9
$ATTREQ
 70
     1
  9
$HANDLING
 70
     1
  9
$HANDSEED
  5
5D4E
  9
$SURFTAB1
 70
     6
  9
$SURFTAB2
 70
     6
  9
$SURFTYPE
 70
     6
  9
$SURFU
 70
     6
  9
$SURFV
 70
     6
  9
$UCSNAME
  2

  9
$UCSORG
 10
0.0
 20
0.0
 30
0.0
  9
$UCSXDIR
 10
1.0
 20
0.0
 30
0.0
  9
$UCSYDIR
 10
0.0
 20
1.0
 30
0.0
  9
$PUCSNAME
  2

  9
$PUCSORG
 10
0.0
 20
0.0
 30
0.0
  9
$PUCSXDIR
 10
1.0
 20
0.0
 30
0.0
  9
$PUCSYDIR
 10
0.0
 20
1.0
 30
0.0
  9
$USERI1
 70
     0
  9
$USERI2
 70
     0
  9
$USERI3
 70
     0
  9
$USERI4
 70
     0
  9
$USERI5
 70
     0
  9
$USERR1
 40
0.0
  9
$USERR2
 40
0.0
  9
$USERR3
 40
0.0
  9
$USERR4
 40
0.0
  9
$USERR5
 40
0.0
  9
$WORLDVIEW
 70
     0
  9
$SHADEDGE
 70
     3
  9
$SHADEDIF
 70
    70
  9
$TILEMODE
 70
     1
  9
$MAXACTVP
 70
    16
  9
$PLIMCHECK
 70
     0
  9
$PEXTMIN
 10
1.0000000000000000E+020
 20
1.0000000000000000E+020
 30
1.0000000000000000E+020
  9
$PEXTMAX
 10
-1.0000000000000000E+020
 20
-1.0000000000000000E+020
 30
-1.0000000000000000E+020
  9
$PLIMMIN
 10
0.0
 20
0.0
  9
$PLIMMAX
 10
12.0
 20
9.0
  9
$UNITMODE
 70
     0
  9
$VISRETAIN
 70
     0
  9
$PLINEGEN
 70
     0
  9
$PSLTSCALE
 70
     0
  0
ENDSEC
  0
SECTION
  2
TABLES
  0
TABLE
  2
VPORT
 70
     1
  0
VPORT
  2
*ACTIVE
 70
     0
 10
0.0
 20
0.0
 11
1.0
 21
1.0
 12
5159.6396069948314
 22
2244.780895692274
 13
0.0
 23
0.0
 14
50.0
 24
50.0
 15
100.0
 25
100.0
 16
0.0
 26
0.0
 36
1.0
 17
0.0
 27
0.0
 37
0.0
 40
4523.8150867939494
 41
1.5308953341740219
 42
50.0
 43
0.0
 44
0.0
 50
0.0
 51
0.0
 71
     0
 72
   100
 73
     1
 74
     0
 75
     0
 76
     0
 77
     0
 78
     0
  0
ENDTAB
  0
TABLE
  2
LTYPE
 70
    16
  0
LTYPE
  2
CONTINUOUS
 70
     0
  3
Solid line
 72
    65
 73
     0
 40
0.0
  0
LTYPE
  2
HIDDEN
 70
     0
  3
_ _ _ _ _ _ _ _ _ _ _ _ _ _ _ _ _ _ _ _ _ _ _
 72
    65
 73
     2
 40
0.375
 49
0.25
 49
-0.125
  0
LTYPE
  2
PHANTOM2
 70
     0
  3
Phantom (.5x) ___ _ _ ___ _ _ ___ _ _ ___ _ _
 72
    65
 73
     6
 40
1.25
 49
0.625
 49
-0.125
 49
0.125
 49
-0.125
 49
0.125
 49
-0.125
  0
LTYPE
  2
CENTER
 70
     0
  3
Center ____ _ ____ _ ____ _ ____ _ ____ _ ____
 72
    65
 73
     4
 40
2.0
 49
1.25
 49
-0.25
 49
0.25
 49
-0.25
  0
LTYPE
  2
AM_ISO02W050
 70
     0
  3
__ __ __ __ __ __ __ __ __ __ __ __ __ __ __
 72
    65
 73
     2
 40
7.5
 49
6.0
 49
-1.5
  0
LTYPE
  2
AM_ISO08W050
 70
     0
  3
____ . ____ . ____ . ____ . ____ . ____ . ____
 72
    65
 73
     4
 40
18.0
 49
12.0
 49
-1.5
 49
3.0
 49
-1.5
  0
LTYPE
  2
AM_ISO09W050
 70
     0
  3
_____ . . _____ . . _____ . . ____ .. ____
 72
    65
 73
     6
 40
22.5
 49
12.0
 49
-1.5
 49
3.0
 49
-1.5
 49
3.0
 49
-1.5
  0
LTYPE
  2
AMCONSTR
 70
     0
  3
_______________________
 72
    65
 73
     2
 40
9999.0
 49
9999.0
 49
0.0
  0
LTYPE
  2
AM_ISO08W050X2
 70
     0
  3
__ . __ . __ . __ . __ . __
 72
    65
 73
     4
 40
9.0
 49
6.0
 49
-0.75
 49
1.5
 49
-0.75
  0
LTYPE
  2
AM_ISO02W050X2
 70
     0
  3
 _ _ _ _ _ _ _ _ _ _ _ _
 72
    65
 73
     2
 40
3.75
 49
3.0
 49
-0.75
  0
LTYPE
  2
AMZIGZAG
 70
     0
  3
/\/-/\/-/\/-/\/-/\/-/\/
 72
    65
 73
     2
 40
11.0001
 49
0.0001
 49
-11.0
  0
LTYPE
  2
CENTER2
 70
     0
  3
Center (.5x) ___ _ ___ _ ___ _ ___ _ ___ _ ___
 72
    65
 73
     4
 40
1.125
 49
0.75
 49
-0.125
 49
0.125
 49
-0.125
  0
LTYPE
  2
HIDDEN2
 70
     0
  3
Hidden (.5x) _ _ _ _ _ _ _ _ _ _ _ _ _ _ _ _ _
 72
    65
 73
     2
 40
0.1875
 49
0.125
 49
-0.0625
  0
LTYPE
  2
AMZIGZAG2
 70
     0
  3
/\/-/\/-/\/-/\/-/\/-/\/
 72
    65
 73
     2
 40
0.4401
 49
0.0001
 49
-0.4400000000000001
  0
LTYPE
  2
ACANSTGB
 70
     0
  3
__ . . __ . .
 72
    65
 73
     6
 40
0.35433070866
 49
0.15748031496
 49
-0.03937007874
 49
0.03937007874
 49
-0.03937007874
 49
0.03937007874
 49
-0.03937007874
  0
LTYPE
  2
ACANSTGL
 70
     0
  3
_ _ _ _ _
 72
    65
 73
     2
 40
0.11811023622
 49
0.07874015748
 49
-0.03937007874
  0
ENDTAB
  0
TABLE
  2
LAYER
 70
     6
  0
LAYER
  2
0
 70
     0
 62
     7
  6
CONTINUOUS
  0
LAYER
  2
DIM
 70
     0
 62
     7
  6
CONTINUOUS
  0
LAYER
  2
TEXT
 70
     0
 62
   100
  6
CONTINUOUS
  0
LAYER
  2
OUTLINE
 70
     0
 62
     7
  6
CONTINUOUS
  0
LAYER
  2
OVERLAY-A3
 70
     0
 62
     7
  6
CONTINUOUS
  0
LAYER
  2
CLEAR
 70
     0
 62
     1
  6
PHANTOM2
  0
ENDTAB
  0
TABLE
  2
STYLE
 70
     8
  0
STYLE
  2
STANDARD
 70
     0
 40
0.0
 41
1.0
 50
0.0
 71
     0
 42
0.2
  3
txt
  4

  0
STYLE
  2
ANNOTATIVE
 70
     0
 40
0.0
 41
1.0
 50
0.0
 71
     0
 42
0.2
  3
txt
  4

  0
STYLE
  2
TITLE3
 70
     0
 40
60.0
 41
1.0
 50
0.0
 71
     0
 42
60.0
  3
SIMPLEX
  4

  0
STYLE
  2
SIMPLEX
 70
     0
 40
45.0
 41
1.0
 50
0.0
 71
     0
 42
45.0
  3
simplex
  4

  0
STYLE
  2
TITLE5
 70
     0
 40
100.0
 41
1.0
 50
0.0
 71
     0
 42
100.0
  3
SIMPLEX
  4

  0
STYLE
  2

 70
     1
 40
0.0
 41
1.0
 50
0.0
 71
     0
 42
60.0
  3
genltshp.shx
  4

  0
STYLE
  2
ACANSTS
 70
     0
 40
1.0
 41
1.0
 50
0.0
 71
     0
 42
60.0
  3
romans.shx
  4

  0
STYLE
  2
ACANSGDT
 70
     0
 40
0.0
 41
1.0
 50
0.0
 71
     0
 42
60.0
  3
amgdt.shx
  4

  0
ENDTAB
  0
TABLE
  2
VIEW
 70
     0
  0
ENDTAB
  0
TABLE
  2
UCS
 70
     0
  0
ENDTAB
  0
TABLE
  2
APPID
 70
    10
  0
APPID
  2
ACAD
 70
     0
  0
APPID
  2
ACADANNOTATIVE
 70
     0
  0
APPID
  2
ACAD_MLEADERVER
 70
     0
  0
APPID
  2
MCAD_NO_VIS
 70
     0
  0
APPID
  2
ACAD_TEMP_GRAPHIC
 70
     0
  0
APPID
  2
AD_DRAW
 70
     0
  0
APPID
  2
ACATTRIBSERVICES
 70
     0
  0
APPID
  2
DESIGNERASSEMBLIES
 70
     0
  0
APPID
  2
ACADM_DIM_EDIT
 70
     0
  0
APPID
  2
AMDT_DM_ADJ
 70
     0
  0
ENDTAB
  0
TABLE
  2
DIMSTYLE
 70
     8
  0
DIMSTYLE
  2
STANDARD
 70
     0
  3

  4

  5

  6

  7

 40
1.0
 41
0.18
 42
0.0625
 43
0.38
 44
0.18
 45
0.0
 46
0.0
 47
0.0
 48
0.0
140
0.18
141
0.09
142
0.0
143
25.399999999999999
144
1.0
145
0.0
146
1.0
147
0.09
 71
     0
 72
     0
 73
     1
 74
     1
 75
     0
 76
     0
 77
     0
 78
     0
170
     0
171
     2
172
     0
173
     0
174
     0
175
     0
176
     0
177
     0
178
     0
  0
DIMSTYLE
  2
ANNOTATIVE
 70
     0
  3

  4

  5

  6

  7

 40
1.0
 41
0.18
 42
0.0625
 43
0.38
 44
0.18
 45
0.0
 46
0.0
 47
0.0
 48
0.0
140
0.18
141
0.09
142
0.0
143
25.399999999999999
144
1.0
145
0.0
146
1.0
147
0.09
 71
     0
 72
     0
 73
     1
 74
     1
 75
     0
 76
     0
 77
     0
 78
     0
170
     0
171
     2
172
     0
173
     0
174
     0
175
     0
176
     0
177
     0
178
     0
  0
DIMSTYLE
  2
AM_ANSI
 70
     0
  3

  4
mm
  5

  6

  7

 40
1.0
 41
0.12
 42
0.05
 43
0.5
 44
0.1
 45
0.0
 46
0.0
 47
0.1
 48
0.1
140
0.12
141
0.0
142
0.0
143
25.399999999999999
144
1.0
145
0.0
146
0.71
147
0.06
 71
     0
 72
     0
 73
     1
 74
     1
 75
     0
 76
     0
 77
     0
 78
     7
170
     0
171
     2
172
     0
173
     0
174
     0
175
     0
176
   256
177
   256
178
     2
  0
DIMSTYLE
  2
AM_ANSI$3
 70
     0
  3

  4
mm
  5

  6

  7

 40
1.0
 41
0.12
 42
0.05
 43
0.5
 44
0.1
 45
0.0
 46
0.0
 47
0.1
 48
0.1
140
0.12
141
0.0
142
0.0
143
25.399999999999999
144
1.0
145
0.0
146
0.71
147
0.06
 71
     0
 72
     0
 73
     1
 74
     1
 75
     0
 76
     0
 77
     0
 78
     7
170
     0
171
     2
172
     0
173
     0
174
     0
175
     0
176
   256
177
   256
178
     2
  0
DIMSTYLE
  2
AM_ANSI$4
 70
     0
  3

  4
mm
  5

  6

  7

 40
1.0
 41
0.12
 42
0.05
 43
0.5
 44
0.1
 45
0.0
 46
0.0
 47
0.1
 48
0.1
140
0.12
141
0.0
142
0.0
143
25.399999999999999
144
1.0
145
0.0
146
0.71
147
0.06
 71
     0
 72
     0
 73
     1
 74
     1
 75
     0
 76
     0
 77
     0
 78
     7
170
     0
171
     2
172
     0
173
     0
174
     0
175
     0
176
   256
177
   256
178
     2
  0
DIMSTYLE
  2
AM_ANSI$7
 70
     0
  3

  4
mm
  5

  6

  7

 40
1.0
 41
0.12
 42
0.05
 43
0.5
 44
0.1
 45
0.0
 46
0.0
 47
0.1
 48
0.1
140
0.12
141
0.0
142
0.0
143
25.399999999999999
144
1.0
145
0.0
146
0.71
147
0.06
 71
     0
 72
     0
 73
     1
 74
     1
 75
     0
 76
     0
 77
     0
 78
     7
170
     0
171
     2
172
     0
173
     0
174
     0
175
     0
176
   256
177
   256
178
     2
  0
DIMSTYLE
  2
AM_ANSI$SF
 70
     0
  3

  4
mm
  5

  6

  7

 40
1.0
 41
0.12
 42
0.05
 43
0.5
 44
0.1
 45
0.0
 46
0.0
 47
0.1
 48
0.1
140
0.12
141
0.0
142
0.0
143
25.399999999999999
144
1.0
145
0.0
146
0.71
147
0.06
 71
     0
 72
     0
 73
     1
 74
     1
 75
     1
 76
     1
 77
     0
 78
     7
170
     0
171
     2
172
     0
173
     0
174
     0
175
     0
176
   256
177
   256
178
     2
  0
DIMSTYLE
  2
AM_ANSI$SH
 70
     0
  3

  4
mm
  5

  6
GENAXEH
  7

 40
1.0
 41
0.12
 42
0.05
 43
0.5
 44
0.1
 45
0.0
 46
0.0
 47
0.1
 48
0.1
140
0.12
141
0.0
142
0.0
143
25.399999999999999
144
1.0
145
0.0
146
0.71
147
0.06
 71
     0
 72
     0
 73
     1
 74
     1
 75
     1
 76
     1
 77
     0
 78
     7
170
     0
171
     2
172
     0
173
     1
174
     0
175
     0
176
   256
177
   256
178
     2
  0
ENDTAB
  0
ENDSEC
  0
SECTION
  2
BLOCKS
  0
BLOCK
  8
0
  2
$MODEL_SPACE
 70
     0
 10
0.0
 20
0.0
 30
0.0
  3
$MODEL_SPACE
  1

  0
ENDBLK
  5
5C5E
  8
0
  0
BLOCK
 67
     1
  8
0
  2
$PAPER_SPACE
 70
     0
 10
0.0
 20
0.0
 30
0.0
  3
$PAPER_SPACE
  1

  0
ENDBLK
  5
5C5A
 67
     1
  8
0
  0
BLOCK
  8
0
  2
NEW_BLOCK
 70
     0
 10
0.0
 20
0.0
 30
0.0
  3
NEW_BLOCK
  1

  0
TEXT
  5
5AD5
  8
TEXT
 10
27.285946821803002
 20
25.27142175952417
 30
0.0
 40
40.0
  1
available on request
  7
TITLE3
  0
TEXT
  5
5AD6
  8
TEXT
 10
27.285946821803002
 20
93.842850330952714
 30
0.0
 40
40.0
  1
Certified dimensions
  7
TITLE3
  0
TEXT
  5
5AD7
  8
TEXT
 10
27.285946821803002
 20
162.4142789023812
 30
0.0
 40
40.0
  1
without notice or obligation.
  7
TITLE3
  0
TEXT
  5
5AD8
  8
TEXT
 10
27.285946821803002
 20
230.9857074738097
 30
0.0
 40
40.0
  1
specifications at any time
  7
TITLE3
  0
TEXT
  5
5AD9
  8
TEXT
 10
27.285946821803002
 20
299.55713604523839
 30
0.0
 40
40.0
  1
the right to change 
  7
TITLE3
  0
TEXT
  5
5ADA
  8
TEXT
 10
27.285946821803002
 20
436.69999318809499
 30
0.0
 40
40.0
  1
NOTE
  7
TITLE3
  0
TEXT
  5
5ADB
  8
TEXT
 10
27.285946821803002
 20
368.12856461666672
 30
0.0
 40
40.0
  1
The manufacturer reserves
  7
TITLE3
  0
ENDBLK
  5
5ADC
  8
0
  0
BLOCK
  8
0
  2
GENAXEH
 70
     0
 10
0.0
 20
0.0
 30
0.0
  3
GENAXEH
  1

  0
LINE
  5
5CFD
  8
0
 10
-1.0
 20
0.0
 30
0.0
 11
1.0
 21
0.0
 31
0.0
  0
ENDBLK
  5
5CFF
  8
0
  0
ENDSEC
  0
SECTION
  2
ENTITIES
  0
LINE
  5
5ADD
  8
OUTLINE
 10
5252.498319757271
 20
2144.3308821245209
 30
0.0
 11
5252.498319757271
 21
1521.530882124521
 31
0.0
  0
LINE
  5
5ADE
  8
OUTLINE
  6
CONTINUOUS
 10
5252.498319757271
 20
1521.530882124521
 30
0.0
 11
6522.498319757291
 21
1521.530882124521
 31
0.0
  0
LINE
  5
5ADF
  8
OUTLINE
 10
6522.4983197572701
 20
2144.3308821245209
 30
0.0
 11
5252.498319757271
 21
2144.3308821245209
 31
0.0
  0
LINE
  5
5AE0
  8
OUTLINE
 10
6522.498319757291
 20
1521.530882124521
 30
0.0
 11
6522.4983197572701
 21
2144.3308821245209
 31
0.0
  0
LINE
  5
5AE1
  8
OUTLINE
 10
3075.7849606585328
 20
2144.3308821245209
 30
0.0
 11
3948.1849606585329
 21
2144.3308821245209
 31
0.0
  0
LINE
  5
5AE2
  8
OUTLINE
 10
3075.7849606585328
 20
1521.530882124521
 30
0.0
 11
3075.7849606585328
 21
2144.3308821245209
 31
0.0
  0
LINE
  5
5AE3
  8
OUTLINE
 10
3948.1849606585288
 20
1521.530882124521
 30
0.0
 11
3948.1849606585329
 21
2144.3308821245209
 31
0.0
  0
LINE
  5
5AE4
  8
OUTLINE
  6
BYBLOCK
 10
6522.4983197572701
 20
4150.6715145002127
 30
0.0
 11
6522.4983197572701
 21
3283.2715145002139
 31
0.0
  0
LINE
  5
5AE5
  8
OUTLINE
  6
BYBLOCK
 10
5252.4983197572728
 20
4150.6715145002127
 30
0.0
 11
6522.4983197572701
 21
4150.6715145002127
 31
0.0
  0
LINE
  5
5AE6
  8
OUTLINE
  6
BYBLOCK
 10
6522.4983197572701
 20
3283.2715145002139
 30
0.0
 11
5252.4983197572728
 21
3283.2715145002139
 31
0.0
  0
LINE
  5
5AE7
  8
OUTLINE
  6
BYBLOCK
 10
5252.4983197572728
 20
3283.2715145002139
 30
0.0
 11
5252.4983197572728
 21
4150.6715145002127
 31
0.0
  0
LINE
  5
5AE8
  8
OUTLINE
 10
3948.1849606585288
 20
1521.530882124521
 30
0.0
 11
3075.7849606585328
 21
1521.530882124521
 31
0.0
  0
CIRCLE
  5
5AE9
  8
OUTLINE
 10
3650.7716964426891
 20
1561.6206700917
 30
0.0
 40
17.0
  0
LINE
  5
5AEA
  8
OUTLINE
  6
CONTINUOUS
 10
3015.9884695732071
 20
2090.4299235330609
 30
0.0
 11
3015.9884695732071
 21
1740.429923533062
 31
0.0
  0
LINE
  5
5AEB
  8
OUTLINE
  6
CONTINUOUS
 10
6097.498319757271
 20
4210.9654845872428
 30
0.0
 11
5777.4983197572719
 21
4210.9654845872428
 31
0.0
  0
LINE
  5
5AEC
  8
OUTLINE
  6
CONTINUOUS
 10
5252.498319757271
 20
1551.232104570734
 30
0.0
 11
5184.3983197572679
 21
1551.232104570734
 31
0.0
  0
LINE
  5
5AED
  8
OUTLINE
  6
CONTINUOUS
 10
5184.3983197572679
 20
1551.232104570734
 30
0.0
 11
5184.3983197572679
 21
1579.2321045707361
 31
0.0
  0
LINE
  5
5AEE
  8
OUTLINE
  6
CONTINUOUS
 10
5184.3983197572679
 20
1579.2321045707361
 30
0.0
 11
5252.498319757271
 21
1579.2321045707361
 31
0.0
  0
LINE
  5
5AEF
  8
OUTLINE
  6
CONTINUOUS
 10
5307.4983197572719
 20
3133.2669956419541
 30
0.0
 11
6507.4983197572728
 21
3133.2669956419541
 31
0.0
  0
LINE
  5
5AF0
  8
OUTLINE
  6
CONTINUOUS
 10
5307.4983197572692
 20
3283.2715145002139
 30
0.0
 11
5307.4983197572719
 21
3133.2669956419541
 31
0.0
  0
LINE
  5
5AF1
  8
OUTLINE
  6
CONTINUOUS
 10
5184.3983197572679
 20
3594.7715145002148
 30
0.0
 11
5252.4983197572737
 21
3594.7715145002148
 31
0.0
  0
LINE
  5
5AF2
  8
OUTLINE
  6
CONTINUOUS
 10
5252.4983197572737
 20
3566.7715145002148
 30
0.0
 11
5184.3983197572679
 21
3566.7715145002148
 31
0.0
  0
LINE
  5
5AF3
  8
OUTLINE
  6
CONTINUOUS
 10
5184.3983197572679
 20
3566.7715145002148
 30
0.0
 11
5184.3983197572679
 21
3594.7715145002148
 31
0.0
  0
LINE
  5
5AF4
  8
OUTLINE
  6
CONTINUOUS
 10
6507.4983197572728
 20
3283.2715145002139
 30
0.0
 11
6507.4983197572728
 21
3133.2669956419541
 31
0.0
  0
LINE
  5
5AF5
  8
OUTLINE
 10
5508.3983197572707
 20
1472.3308821245209
 30
0.0
 11
5611.5983197572723
 21
1472.3308821245209
 31
0.0
  0
LINE
  5
5AF6
  8
OUTLINE
 10
5508.3983197572707
 20
1521.530882124521
 30
0.0
 11
5508.3983197572707
 21
1472.3308821245209
 31
0.0
  0
LINE
  5
5AF7
  8
OUTLINE
 10
5480.3983197572697
 20
1521.530882124521
 30
0.0
 11
5509.9983197572701
 21
1521.530882124521
 31
0.0
  0
LINE
  5
5AF8
  8
OUTLINE
 10
5611.5983197572723
 20
1472.3308821245209
 30
0.0
 11
5611.5983197572723
 21
1521.530882124521
 31
0.0
  0
LINE
  5
5AF9
  8
OUTLINE
 10
6266.5983197572714
 20
1472.3308821245209
 30
0.0
 11
6163.3983197572707
 21
1472.3308821245209
 31
0.0
  0
LINE
  5
5AFA
  8
OUTLINE
 10
6294.5983197572714
 20
1521.530882124521
 30
0.0
 11
6264.9983197572701
 21
1521.530882124521
 31
0.0
  0
LINE
  5
5AFB
  8
OUTLINE
 10
6266.5983197572714
 20
1521.530882124521
 30
0.0
 11
6266.5983197572714
 21
1472.3308821245209
 31
0.0
  0
LINE
  5
5AFC
  8
OUTLINE
 10
6163.3983197572707
 20
1472.3308821245209
 30
0.0
 11
6163.3983197572707
 21
1521.530882124521
 31
0.0
  0
ARC
  5
5AFD
  8
OUTLINE
  6
HIDDEN
 10
3332.6187908024249
 20
1812.7800489200711
 30
0.0
 40
269.48301335742491
 50
10.39403447733936
 51
56.292069532274454
  0
ARC
  5
5AFE
  8
OUTLINE
  6
HIDDEN
 62
     7
 10
3363.682010782552
 20
1797.157494688247
 30
0.0
 40
232.33895957621971
 50
279.302521193421
 51
326.25019913306511
  0
LINE
  5
5AFF
  8
OUTLINE
  6
HIDDEN
 10
3111.091809846318
 20
2085.729067512676
 30
0.0
 11
3111.091809846318
 21
1742.729923533062
 31
0.0
  0
CIRCLE
  5
5B00
  8
OUTLINE
  6
HIDDEN
 62
     7
 10
3341.0918098463171
 20
1792.729923533062
 30
0.0
 40
132.4999999999996
  0
ARC
  5
5B01
  8
OUTLINE
  6
HIDDEN
 62
     7
 10
3361.8342524281811
 20
1787.518216420767
 30
0.0
 40
223.15087562817811
 50
234.6872744456779
 51
280.17472152749502
  0
ARC
  5
5B02
  8
OUTLINE
  6
HIDDEN
 62
     7
 10
3357.7895839179509
 20
1779.5357635245521
 30
0.0
 40
214.303171255461
 50
189.88938533542881
 51
234.3360483572672
  0
LINE
  5
5B03
  8
OUTLINE
  6
HIDDEN
 10
3146.6707089856791
 20
1742.729923533062
 30
0.0
 11
3111.091809846318
 21
1742.729923533062
 31
0.0
  0
ARC
  5
5B04
  8
OUTLINE
  6
HIDDEN
 62
     7
 10
3330.3944818855671
 20
1826.3615827066931
 30
0.0
 40
259.58969888004151
 50
54.2116097945852
 51
87.62911401693674
  0
ARC
  5
5B05
  8
OUTLINE
  6
HIDDEN
 62
     7
 10
3353.3072832052289
 20
1812.022088223915
 30
0.0
 40
249.31114485283661
 50
324.72813283946738
 51
11.427369472130581
  0
LINE
  5
5B06
  8
OUTLINE
 10
3059.9849606585321
 20
1471.530882124516
 30
0.0
 11
3963.984960658534
 21
1471.530882124516
 31
0.0
  0
LINE
  5
5B07
  8
DIM
  6
CONTINUOUS
 10
5253.6983197572708
 20
2183.1308821245188
 30
0.0
 11
5253.6983197572708
 21
2334.7263941262308
 31
0.0
  0
LINE
  5
5B08
  8
DIM
  6
CONTINUOUS
 10
6521.2983197572721
 20
2183.1308821245188
 30
0.0
 11
6521.2983197572721
 21
2334.7263941262308
 31
0.0
  0
LINE
  5
5B09
  8
DIM
  6
CONTINUOUS
 10
5313.6983197572708
 20
2294.7263941262308
 30
0.0
 11
5747.4983197572701
 21
2294.7263941262308
 31
0.0
  0
LINE
  5
5B0A
  8
DIM
  6
CONTINUOUS
 10
6461.2983197572721
 20
2294.7263941262308
 30
0.0
 11
6027.4983197572701
 21
2294.7263941262308
 31
0.0
  0
SOLID
  5
5B0B
  8
DIM
  6
CONTINUOUS
 10
5313.6983197572708
 20
2304.726394126229
 30
0.0
 11
5313.6983197572708
 21
2284.726394126229
 31
0.0
 12
5253.6983197572708
 22
2294.7263941262308
 32
0.0
 13
5253.6983197572708
 23
2294.7263941262308
 33
0.0
  0
SOLID
  5
5B0C
  8
DIM
  6
CONTINUOUS
 10
6461.2983197572721
 20
2304.726394126229
 30
0.0
 11
6461.2983197572721
 21
2284.726394126229
 31
0.0
 12
6521.2983197572721
 22
2294.7263941262308
 32
0.0
 13
6521.2983197572721
 23
2294.7263941262308
 33
0.0
  0
TEXT
  5
5B0D
  8
DIM
  6
CONTINUOUS
 10
5787.4983197572701
 20
2264.7263941262308
 30
0.0
 40
60.0
  1
1270
  7
TITLE3
 72
     1
 11
5887.4983197572701
 21
2294.7263941262308
 31
0.0
 73
     2
  0
LINE
  5
5B0E
  8
DIM
  6
CONTINUOUS
 10
5559.9983197572701
 20
1432.3308821245209
 30
0.0
 11
5559.9983197572701
 21
1299.8509838795319
 31
0.0
  0
LINE
  5
5B0F
  8
DIM
  6
CONTINUOUS
 10
6214.9983197572701
 20
1432.3308821245209
 30
0.0
 11
6214.9983197572701
 21
1299.8509838795319
 31
0.0
  0
LINE
  5
5B10
  8
DIM
  6
CONTINUOUS
 10
6154.9983197572719
 20
1339.8509838795319
 30
0.0
 11
6094.9983197572692
 21
1339.8509838795319
 31
0.0
  0
LINE
  5
5B11
  8
DIM
  6
CONTINUOUS
 10
5619.9983197572719
 20
1339.8509838795319
 30
0.0
 11
5679.9983197572701
 21
1339.8509838795319
 31
0.0
  0
SOLID
  5
5B12
  8
DIM
  6
CONTINUOUS
 10
6154.9983197572719
 20
1349.8509838795319
 30
0.0
 11
6154.9983197572719
 21
1329.8509838795319
 31
0.0
 12
6214.9983197572701
 22
1339.8509838795319
 32
0.0
 13
6214.9983197572701
 23
1339.8509838795319
 33
0.0
  0
SOLID
  5
5B13
  8
DIM
  6
CONTINUOUS
 10
5619.9983197572719
 20
1349.8509838795319
 30
0.0
 11
5619.9983197572719
 21
1329.8509838795319
 31
0.0
 12
5559.9983197572701
 22
1339.8509838795319
 32
0.0
 13
5559.9983197572701
 23
1339.8509838795319
 33
0.0
  0
TEXT
  5
5B14
  8
DIM
  6
CONTINUOUS
 10
5695.3354645377367
 20
1309.4342365044899
 30
0.0
 40
60.0
  1
654 CTRS
 41
0.8704543857379432
  7
TITLE3
 72
     5
 11
6075.8483817317519
 21
1309.4342365044899
 31
0.0
  0
LINE
  5
5B15
  8
OUTLINE
 10
5639.5983197572723
 20
1521.530882124521
 30
0.0
 11
5609.9983197572701
 21
1521.530882124521
 31
0.0
  0
LINE
  5
5B16
  8
OUTLINE
 10
6135.3983197572707
 20
1521.530882124521
 30
0.0
 11
6164.9983197572719
 21
1521.530882124521
 31
0.0
  0
LINE
  5
5B17
  8
DIM
  6
CONTINUOUS
 10
6214.9983197572701
 20
1432.3308821245209
 30
0.0
 11
6214.9983197572701
 21
1299.8509838795319
 31
0.0
  0
LINE
  5
5B18
  8
DIM
  6
CONTINUOUS
 10
6520.8019928907634
 20
1483.1308821245209
 30
0.0
 11
6520.8019928907634
 21
1299.8509838795319
 31
0.0
  0
LINE
  5
5B19
  8
DIM
  6
CONTINUOUS
 10
6154.9983197572719
 20
1339.8509838795319
 30
0.0
 11
6094.9983197572692
 21
1339.8509838795319
 31
0.0
  0
LINE
  5
5B1A
  8
DIM
  6
CONTINUOUS
 10
6580.8019928907606
 20
1339.8509838795319
 30
0.0
 11
6640.8019928907624
 21
1339.8509838795319
 31
0.0
  0
SOLID
  5
5B1B
  8
DIM
  6
CONTINUOUS
 10
6154.9983197572719
 20
1349.8509838795319
 30
0.0
 11
6154.9983197572719
 21
1329.8509838795319
 31
0.0
 12
6214.9983197572701
 22
1339.8509838795319
 32
0.0
 13
6214.9983197572701
 23
1339.8509838795319
 33
0.0
  0
SOLID
  5
5B1C
  8
DIM
  6
CONTINUOUS
 10
6580.8019928907606
 20
1349.8509838795319
 30
0.0
 11
6580.8019928907606
 21
1329.8509838795319
 31
0.0
 12
6520.8019928907634
 22
1339.8509838795319
 32
0.0
 13
6520.8019928907634
 23
1339.8509838795319
 33
0.0
  0
TEXT
  5
5B1D
  8
DIM
  6
CONTINUOUS
 10
6294.1202770624504
 20
1309.8509838795319
 30
0.0
 40
60.0
  1
308
  7
TITLE3
 72
     4
 11
6371.2631342053073
 21
1339.8509838795319
 31
0.0
  0
LINE
  5
5B1E
  8
DIM
  6
CONTINUOUS
 10
5559.9983197572701
 20
1432.3308821245209
 30
0.0
 11
5559.9983197572701
 21
1299.8509838795319
 31
0.0
  0
LINE
  5
5B1F
  8
DIM
  6
CONTINUOUS
 10
5254.1983197572708
 20
1483.130882124522
 30
0.0
 11
5254.1983197572708
 21
1299.8509838795319
 31
0.0
  0
LINE
  5
5B20
  8
DIM
  6
CONTINUOUS
 10
5619.9983197572719
 20
1339.8509838795319
 30
0.0
 11
5679.9983197572701
 21
1339.8509838795319
 31
0.0
  0
LINE
  5
5B21
  8
DIM
  6
CONTINUOUS
 10
5194.1983197572717
 20
1339.8509838795319
 30
0.0
 11
5134.1983197572699
 21
1339.8509838795319
 31
0.0
  0
SOLID
  5
5B22
  8
DIM
  6
CONTINUOUS
 10
5619.9983197572719
 20
1349.8509838795319
 30
0.0
 11
5619.9983197572719
 21
1329.8509838795319
 31
0.0
 12
5559.9983197572701
 22
1339.8509838795319
 32
0.0
 13
5559.9983197572701
 23
1339.8509838795319
 33
0.0
  0
SOLID
  5
5B23
  8
DIM
  6
CONTINUOUS
 10
5194.1983197572717
 20
1349.8509838795319
 30
0.0
 11
5194.1983197572717
 21
1329.8509838795319
 31
0.0
 12
5254.1983197572708
 22
1339.8509838795319
 32
0.0
 13
5254.1983197572708
 23
1339.8509838795319
 33
0.0
  0
TEXT
  5
5B24
  8
DIM
  6
CONTINUOUS
 10
5343.0680071364623
 20
1309.8509838795319
 30
0.0
 40
60.0
  1
308
  7
TITLE3
 72
     4
 11
5420.2108642793191
 21
1339.8509838795319
 31
0.0
  0
LINE
  5
5B25
  8
OUTLINE
 10
4096.984960658534
 20
1605.130882124522
 30
0.0
 11
4096.9849606585294
 21
2109.6308821245202
 31
0.0
  0
LINE
  5
5B26
  8
OUTLINE
  6
CONTINUOUS
 10
3948.184960658532
 20
1605.130882124522
 30
0.0
 11
4096.9849606585321
 21
1605.130882124522
 31
0.0
  0
LINE
  5
5B27
  8
OUTLINE
  6
CONTINUOUS
 10
3948.184960658532
 20
2109.6308821245188
 30
0.0
 11
4096.9849606585294
 21
2109.6308821245202
 31
0.0
  0
CIRCLE
  5
5B28
  8
OUTLINE
 10
3818.431913048501
 20
1625.693989349425
 30
0.0
 40
25.5
  0
CIRCLE
  5
5B29
  8
OUTLINE
 10
3900.9319130485042
 20
1980.813989349426
 30
0.0
 40
25.5
  0
ARC
  5
5B2A
  8
OUTLINE
  6
CONTINUOUS
 10
5253.6983197572717
 20
3612.4715145002119
 30
0.0
 40
513.19999999999925
 50
90.133973106135684
 51
105.8439999538888
  0
LINE
  5
5B2B
  8
OUTLINE
  6
CONTINUOUS
 10
5252.4983197572719
 20
3612.4715145002119
 30
0.0
 11
5113.5849195467108
 21
4106.1743351134191
 31
0.0
  0
LINE
  5
5B2C
  8
DIM
  6
CONTINUOUS
 10
5212.498319757271
 20
2144.3308821245209
 30
0.0
 11
5113.4913548013237
 21
2144.3308821245209
 31
0.0
  0
LINE
  5
5B2D
  8
DIM
  6
CONTINUOUS
 10
5469.998319757271
 20
1473.9308821245211
 30
0.0
 11
4902.791295917069
 21
1473.9308821245211
 31
0.0
  0
LINE
  5
5B2E
  8
DIM
  6
CONTINUOUS
 10
5172.498319757271
 20
2144.3308821245209
 30
0.0
 11
4902.791295917069
 21
2144.3308821245209
 31
0.0
  0
LINE
  5
5B2F
  8
DIM
  6
CONTINUOUS
 10
4942.7912959170681
 20
1533.9308821245211
 30
0.0
 11
4942.7912959170681
 21
1704.845167838806
 31
0.0
  0
LINE
  5
5B30
  8
DIM
  6
CONTINUOUS
 10
4942.7912959170681
 20
2084.3308821245209
 30
0.0
 11
4942.7912959170681
 21
1913.416596410234
 31
0.0
  0
SOLID
  5
5B31
  8
DIM
  6
CONTINUOUS
 10
4932.7912959170681
 20
1533.9308821245211
 30
0.0
 11
4952.791295917069
 21
1533.9308821245211
 31
0.0
 12
4942.7912959170681
 22
1473.9308821245211
 32
0.0
 13
4942.7912959170681
 23
1473.9308821245211
 33
0.0
  0
SOLID
  5
5B32
  8
DIM
  6
CONTINUOUS
 10
4932.7912959170681
 20
2084.3308821245209
 30
0.0
 11
4952.791295917069
 21
2084.3308821245209
 31
0.0
 12
4942.7912959170681
 22
2144.3308821245209
 32
0.0
 13
4942.7912959170681
 23
2144.3308821245209
 33
0.0
  0
TEXT
  5
5B33
  8
DIM
 10
4972.7912959170681
 20
1731.988024981664
 30
0.0
 40
60.0
  1
672
 50
90.0
  7
TITLE3
  0
LINE
  5
5B34
  8
OUTLINE
  6
CONTINUOUS
 10
5777.4983197572719
 20
4150.965484587241
 30
0.0
 11
5777.4983197572719
 21
4210.9654845872428
 31
0.0
  0
LINE
  5
5B35
  8
OUTLINE
  6
CONTINUOUS
 10
6097.498319757271
 20
4150.965484587241
 30
0.0
 11
6097.498319757271
 21
4210.9654845872428
 31
0.0
  0
LINE
  5
5B36
  8
OUTLINE
  6
CONTINUOUS
 10
3075.9884695732039
 20
1740.429923533062
 30
0.0
 11
3015.9884695732071
 21
1740.429923533062
 31
0.0
  0
LINE
  5
5B37
  8
OUTLINE
  6
CONTINUOUS
 10
3075.9884695732039
 20
2090.4299235330609
 30
0.0
 11
3015.9884695732071
 21
2090.4299235330609
 31
0.0
  0
TEXT
  5
5B38
  8
TEXT
  6
CONTINUOUS
 10
5839.841926060788
 20
442.11194147862238
 30
0.0
 40
100.0
  1
IJD 370 (HORIZ.DISCH.)
  7
TITLE5
 72
     1
 11
6718.4133546322182
 21
442.11194147862238
 31
0.0
  0
TEXT
  5
5B39
  8
TEXT
  6
CONTINUOUS
 10
6945.7597427450119
 20
137.60294771056741
 30
0.0
 40
60.0
  1
IJD370
 41
1.4256371881282459
  7
TITLE3
 72
     5
 11
7349.0114045298578
 21
137.60294771056741
 31
0.0
  0
TEXT
  5
5B3A
  8
TEXT
  6
CONTINUOUS
 10
5900.8332085272923
 20
220.0
 30
0.0
 40
60.0
  1
14.10.03
 41
0.8888888888888891
  7
TITLE3
 72
     5
 11
6220.8332085272923
 21
220.0
 31
0.0
  0
LINE
  5
5B3B
  8
OUTLINE
  6
CONTINUOUS
 10
3059.9849606585321
 20
1471.530882124516
 30
0.0
 11
3059.9849606585321
 21
1499.5308821245151
 31
0.0
  0
LINE
  5
5B3C
  8
OUTLINE
  6
CONTINUOUS
 10
3963.9849606585331
 20
1471.530882124516
 30
0.0
 11
3963.9849606585331
 21
1499.5308821245289
 31
0.0
  0
LINE
  5
5B3D
  8
OUTLINE
  6
CONTINUOUS
 10
3081.9849606585399
 20
1521.530882124521
 30
0.0
 11
3059.9849606585321
 21
1499.5308821245151
 31
0.0
  0
LINE
  5
5B3E
  8
OUTLINE
  6
CONTINUOUS
 10
3941.984960658539
 20
1521.530882124521
 30
0.0
 11
3963.9849606585331
 21
1499.5308821245289
 31
0.0
  0
LINE
  5
5B3F
  8
DIM
  6
CONTINUOUS
 10
3095.9849606585321
 20
1431.530882124516
 30
0.0
 11
3095.9849606585321
 21
1299.46823490465
 31
0.0
  0
LINE
  5
5B40
  8
DIM
  6
CONTINUOUS
 10
3927.9849606585321
 20
1431.530882124516
 30
0.0
 11
3927.9849606585321
 21
1299.46823490465
 31
0.0
  0
LINE
  5
5B41
  8
DIM
  6
CONTINUOUS
 10
3155.9849606585321
 20
1339.46823490465
 30
0.0
 11
3259.1278178013899
 21
1339.46823490465
 31
0.0
  0
LINE
  5
5B42
  8
DIM
  6
CONTINUOUS
 10
3867.9849606585331
 20
1339.46823490465
 30
0.0
 11
3764.8421035156739
 21
1339.46823490465
 31
0.0
  0
SOLID
  5
5B43
  8
DIM
  6
CONTINUOUS
 10
3155.9849606585321
 20
1349.46823490465
 30
0.0
 11
3155.9849606585321
 21
1329.46823490465
 31
0.0
 12
3095.9849606585321
 22
1339.46823490465
 32
0.0
 13
3095.9849606585321
 23
1339.46823490465
 33
0.0
  0
SOLID
  5
5B44
  8
DIM
  6
CONTINUOUS
 10
3867.9849606585331
 20
1349.46823490465
 30
0.0
 11
3867.9849606585331
 21
1329.46823490465
 31
0.0
 12
3927.9849606585321
 22
1339.46823490465
 32
0.0
 13
3927.9849606585321
 23
1339.46823490465
 33
0.0
  0
TEXT
  5
5B45
  8
DIM
 10
3293.4135320871051
 20
1309.46823490465
 30
0.0
 40
60.0
  1
832 CTRS
  7
TITLE3
  0
LINE
  5
5B46
  8
DIM
  6
CONTINUOUS
 10
3927.9849606585321
 20
1431.530882124516
 30
0.0
 11
3927.9849606585321
 21
1299.46823490465
 31
0.0
  0
LINE
  5
5B47
  8
DIM
  6
CONTINUOUS
 10
3963.984960658534
 20
1431.530882124516
 30
0.0
 11
3963.984960658534
 21
1299.46823490465
 31
0.0
  0
LINE
  5
5B48
  8
DIM
  6
CONTINUOUS
 10
3867.9849606585331
 20
1339.46823490465
 30
0.0
 11
3799.9849606585321
 21
1339.46823490465
 31
0.0
  0
LINE
  5
5B49
  8
DIM
  6
CONTINUOUS
 10
4023.9849606585321
 20
1339.46823490465
 30
0.0
 11
4083.984960658534
 21
1339.46823490465
 31
0.0
  0
TEXT
  5
5B4A
  8
DIM
 10
4046.808529831851
 20
1358.518689277314
 30
0.0
 40
60.0
  1
36
  7
TITLE3
  0
SOLID
  5
5B4B
  8
DIM
  6
CONTINUOUS
 10
3867.9849606585331
 20
1349.46823490465
 30
0.0
 11
3867.9849606585331
 21
1329.46823490465
 31
0.0
 12
3927.9849606585321
 22
1339.46823490465
 32
0.0
 13
3927.9849606585321
 23
1339.46823490465
 33
0.0
  0
SOLID
  5
5B4C
  8
DIM
  6
CONTINUOUS
 10
4023.9849606585321
 20
1349.46823490465
 30
0.0
 11
4023.9849606585321
 21
1329.46823490465
 31
0.0
 12
3963.984960658534
 22
1339.46823490465
 32
0.0
 13
3963.984960658534
 23
1339.46823490465
 33
0.0
  0
LINE
  5
5B4D
  8
DIM
  6
CONTINUOUS
 10
3095.9849606585321
 20
1431.530882124516
 30
0.0
 11
3095.9849606585321
 21
1299.46823490465
 31
0.0
  0
LINE
  5
5B4E
  8
DIM
  6
CONTINUOUS
 10
3059.9849606585321
 20
1431.530882124516
 30
0.0
 11
3059.9849606585321
 21
1299.46823490465
 31
0.0
  0
LINE
  5
5B4F
  8
DIM
  6
CONTINUOUS
 10
3155.9849606585321
 20
1339.46823490465
 30
0.0
 11
3223.9849606585321
 21
1339.46823490465
 31
0.0
  0
LINE
  5
5B50
  8
DIM
  6
CONTINUOUS
 10
2999.9849606585321
 20
1339.46823490465
 30
0.0
 11
2939.9849606585331
 21
1339.46823490465
 31
0.0
  0
TEXT
  5
5B51
  8
DIM
 10
2867.1859219545408
 20
1356.7963754760019
 30
0.0
 40
60.0
  1
36
  7
TITLE3
  0
SOLID
  5
5B52
  8
DIM
  6
CONTINUOUS
 10
3155.9849606585321
 20
1349.46823490465
 30
0.0
 11
3155.9849606585321
 21
1329.46823490465
 31
0.0
 12
3095.9849606585321
 22
1339.46823490465
 32
0.0
 13
3095.9849606585321
 23
1339.46823490465
 33
0.0
  0
SOLID
  5
5B53
  8
DIM
  6
CONTINUOUS
 10
2999.9849606585321
 20
1349.46823490465
 30
0.0
 11
2999.9849606585321
 21
1329.46823490465
 31
0.0
 12
3059.9849606585321
 22
1339.46823490465
 32
0.0
 13
3059.9849606585321
 23
1339.46823490465
 33
0.0
  0
LINE
  5
5B54
  8
DIM
  6
CONTINUOUS
 10
3070.9849606585321
 20
1431.530882124516
 30
0.0
 11
3070.9849606585321
 21
1184.6424055035859
 31
0.0
  0
LINE
  5
5B55
  8
DIM
  6
CONTINUOUS
 10
3952.9849606585321
 20
1431.530882124516
 30
0.0
 11
3952.9849606585321
 21
1184.6424055035859
 31
0.0
  0
LINE
  5
5B56
  8
DIM
  6
CONTINUOUS
 10
3130.9849606585321
 20
1224.6424055035859
 30
0.0
 11
3253.4135320871028
 21
1224.6424055035859
 31
0.0
  0
LINE
  5
5B57
  8
DIM
  6
CONTINUOUS
 10
3892.9849606585321
 20
1224.6424055035859
 30
0.0
 11
3770.556389229961
 21
1224.6424055035859
 31
0.0
  0
SOLID
  5
5B58
  8
DIM
  6
CONTINUOUS
 10
3130.9849606585321
 20
1234.6424055035859
 30
0.0
 11
3130.9849606585321
 21
1214.6424055035859
 31
0.0
 12
3070.9849606585321
 22
1224.6424055035859
 32
0.0
 13
3070.9849606585321
 23
1224.6424055035859
 33
0.0
  0
SOLID
  5
5B59
  8
DIM
  6
CONTINUOUS
 10
3892.9849606585321
 20
1234.6424055035859
 30
0.0
 11
3892.9849606585321
 21
1214.6424055035859
 31
0.0
 12
3952.9849606585321
 22
1224.6424055035859
 32
0.0
 13
3952.9849606585321
 23
1224.6424055035859
 33
0.0
  0
TEXT
  5
5B5A
  8
DIM
 10
3293.4135320871051
 20
1194.6424055035859
 30
0.0
 40
60.0
  1
882 CTRS
  7
TITLE3
  0
LINE
  5
5B5B
  8
DIM
  6
CONTINUOUS
 10
3952.9849606585321
 20
1391.530882124516
 30
0.0
 11
3952.9849606585321
 21
1184.6424055035859
 31
0.0
  0
LINE
  5
5B5C
  8
DIM
  6
CONTINUOUS
 10
3963.984960658534
 20
1391.530882124516
 30
0.0
 11
3963.984960658534
 21
1184.6424055035859
 31
0.0
  0
LINE
  5
5B5D
  8
DIM
  6
CONTINUOUS
 10
3892.9849606585321
 20
1224.6424055035859
 30
0.0
 11
3832.9849606585321
 21
1224.6424055035859
 31
0.0
  0
LINE
  5
5B5E
  8
DIM
  6
CONTINUOUS
 10
4023.9849606585321
 20
1224.6424055035859
 30
0.0
 11
4083.984960658534
 21
1224.6424055035859
 31
0.0
  0
TEXT
  5
5B5F
  8
DIM
 10
4060.0892241982142
 20
1237.044773126587
 30
0.0
 40
60.0
  1
11
  7
TITLE3
  0
SOLID
  5
5B60
  8
DIM
  6
CONTINUOUS
 10
3892.9849606585321
 20
1234.6424055035859
 30
0.0
 11
3892.9849606585321
 21
1214.6424055035859
 31
0.0
 12
3952.9849606585321
 22
1224.6424055035859
 32
0.0
 13
3952.9849606585321
 23
1224.6424055035859
 33
0.0
  0
SOLID
  5
5B61
  8
DIM
  6
CONTINUOUS
 10
4023.9849606585321
 20
1234.6424055035859
 30
0.0
 11
4023.9849606585321
 21
1214.6424055035859
 31
0.0
 12
3963.984960658534
 22
1224.6424055035859
 32
0.0
 13
3963.984960658534
 23
1224.6424055035859
 33
0.0
  0
LINE
  5
5B62
  8
DIM
  6
CONTINUOUS
 10
3070.9849606585321
 20
1391.530882124516
 30
0.0
 11
3070.9849606585321
 21
1184.6424055035859
 31
0.0
  0
LINE
  5
5B63
  8
DIM
  6
CONTINUOUS
 10
3059.9849606585321
 20
1391.530882124516
 30
0.0
 11
3059.9849606585321
 21
1184.6424055035859
 31
0.0
  0
LINE
  5
5B64
  8
DIM
  6
CONTINUOUS
 10
3130.9849606585321
 20
1224.6424055035859
 30
0.0
 11
3190.9849606585321
 21
1224.6424055035859
 31
0.0
  0
LINE
  5
5B65
  8
DIM
  6
CONTINUOUS
 10
2999.9849606585321
 20
1224.6424055035859
 30
0.0
 11
2939.9849606585331
 21
1224.6424055035859
 31
0.0
  0
TEXT
  5
5B66
  8
DIM
 10
2898.9496361496122
 20
1241.97055865217
 30
0.0
 40
60.0
  1
11
  7
TITLE3
  0
SOLID
  5
5B67
  8
DIM
  6
CONTINUOUS
 10
3130.9849606585321
 20
1234.6424055035859
 30
0.0
 11
3130.9849606585321
 21
1214.6424055035859
 31
0.0
 12
3070.9849606585321
 22
1224.6424055035859
 32
0.0
 13
3070.9849606585321
 23
1224.6424055035859
 33
0.0
  0
SOLID
  5
5B68
  8
DIM
  6
CONTINUOUS
 10
2999.9849606585321
 20
1234.6424055035859
 30
0.0
 11
2999.9849606585321
 21
1214.6424055035859
 31
0.0
 12
3059.9849606585321
 22
1224.6424055035859
 32
0.0
 13
3059.9849606585321
 23
1224.6424055035859
 33
0.0
  0
LINE
  5
5B69
  8
DIM
  6
CONTINUOUS
 10
5429.998319757271
 20
1473.9308821245211
 30
0.0
 11
5113.4913548013237
 21
1473.9308821245211
 31
0.0
  0
TEXT
  5
5B6A
  8
TEXT
  6
CONTINUOUS
 10
5940.0
 20
83.084712221012509
 30
0.0
 40
60.0
  1
1=20
  7
TITLE3
  0
LINE
  5
5B6B
  8
OUTLINE
 10
5195.6983197572708
 20
1644.193989349425
 30
0.0
 11
5221.1983197572699
 21
1644.193989349425
 31
0.0
  0
LINE
  5
5B6C
  8
OUTLINE
 10
5195.6983197572708
 20
1607.1939893494259
 30
0.0
 11
5221.1983197572699
 21
1607.1939893494259
 31
0.0
  0
LINE
  5
5B6D
  8
OUTLINE
 10
5221.1983197572699
 20
1646.6939893494259
 30
0.0
 11
5221.1983197572699
 21
1604.693989349425
 31
0.0
  0
LINE
  5
5B6E
  8
OUTLINE
 10
5244.1983197572708
 20
1646.6939893494259
 30
0.0
 11
5244.1983197572708
 21
1604.693989349425
 31
0.0
  0
LINE
  5
5B6F
  8
OUTLINE
 10
5221.1983197572699
 20
1604.693989349425
 30
0.0
 11
5244.1983197572708
 21
1604.693989349425
 31
0.0
  0
LINE
  5
5B70
  8
OUTLINE
 10
5221.1983197572699
 20
1646.6939893494259
 30
0.0
 11
5244.1983197572708
 21
1646.6939893494259
 31
0.0
  0
LINE
  5
5B71
  8
OUTLINE
 10
5194.1983197572708
 20
1642.6939893494259
 30
0.0
 11
5195.6983197572708
 21
1644.193989349425
 31
0.0
  0
LINE
  5
5B72
  8
OUTLINE
 10
5194.1983197572708
 20
1642.6939893494259
 30
0.0
 11
5194.1983197572708
 21
1608.6939893494259
 31
0.0
  0
LINE
  5
5B73
  8
OUTLINE
 10
5194.1983197572708
 20
1608.6939893494259
 30
0.0
 11
5195.6983197572708
 21
1607.1939893494259
 31
0.0
  0
LINE
  5
5B74
  8
OUTLINE
 10
5195.6983197572708
 20
1999.313989349426
 30
0.0
 11
5221.1983197572699
 21
1999.313989349426
 31
0.0
  0
LINE
  5
5B75
  8
OUTLINE
 10
5195.6983197572708
 20
1962.313989349424
 30
0.0
 11
5221.1983197572699
 21
1962.313989349424
 31
0.0
  0
LINE
  5
5B76
  8
OUTLINE
 10
5221.1983197572699
 20
2001.813989349424
 30
0.0
 11
5244.1983197572708
 21
2001.813989349424
 31
0.0
  0
LINE
  5
5B77
  8
OUTLINE
 10
5221.1983197572699
 20
1959.813989349424
 30
0.0
 11
5244.1983197572708
 21
1959.813989349424
 31
0.0
  0
LINE
  5
5B78
  8
OUTLINE
 10
5244.1983197572708
 20
2001.813989349424
 30
0.0
 11
5244.1983197572708
 21
1959.813989349424
 31
0.0
  0
LINE
  5
5B79
  8
OUTLINE
 10
5221.1983197572699
 20
2001.813989349424
 30
0.0
 11
5221.1983197572699
 21
1959.813989349424
 31
0.0
  0
LINE
  5
5B7A
  8
OUTLINE
 10
5194.1983197572708
 20
1997.813989349426
 30
0.0
 11
5195.6983197572708
 21
1999.313989349426
 31
0.0
  0
LINE
  5
5B7B
  8
OUTLINE
 10
5194.1983197572708
 20
1963.813989349424
 30
0.0
 11
5195.6983197572708
 21
1962.313989349424
 31
0.0
  0
LINE
  5
5B7C
  8
OUTLINE
 10
5194.1983197572708
 20
1997.813989349426
 30
0.0
 11
5194.1983197572708
 21
1963.813989349426
 31
0.0
  0
LINE
  5
5B7D
  8
OUTLINE
 10
5244.1983197572708
 20
1996.813989349424
 30
0.0
 11
5252.4983197572701
 21
1996.813989349424
 31
0.0
  0
LINE
  5
5B7E
  8
OUTLINE
 10
5244.1983197572708
 20
1964.813989349426
 30
0.0
 11
5252.4983197572701
 21
1964.813989349426
 31
0.0
  0
LINE
  5
5B7F
  8
OUTLINE
 10
5244.1983197572708
 20
1641.6939893494259
 30
0.0
 11
5252.4983197572701
 21
1641.6939893494259
 31
0.0
  0
LINE
  5
5B80
  8
OUTLINE
 10
5244.1983197572708
 20
1609.693989349425
 30
0.0
 11
5252.4983197572701
 21
1609.693989349425
 31
0.0
  0
LINE
  5
5B81
  8
OUTLINE
 10
5195.6983197572708
 20
3347.7715145002121
 30
0.0
 11
5221.1983197572699
 21
3347.7715145002121
 31
0.0
  0
LINE
  5
5B82
  8
OUTLINE
 10
5195.6983197572708
 20
3310.771514500213
 30
0.0
 11
5221.1983197572699
 21
3310.771514500213
 31
0.0
  0
LINE
  5
5B83
  8
OUTLINE
 10
5221.1983197572699
 20
3350.2715145002112
 30
0.0
 11
5244.1983197572708
 21
3350.2715145002112
 31
0.0
  0
LINE
  5
5B84
  8
OUTLINE
 10
5221.1983197572699
 20
3308.271514500213
 30
0.0
 11
5244.1983197572708
 21
3308.271514500213
 31
0.0
  0
LINE
  5
5B85
  8
OUTLINE
 10
5244.1983197572708
 20
3350.2715145002112
 30
0.0
 11
5244.1983197572708
 21
3308.271514500213
 31
0.0
  0
LINE
  5
5B86
  8
OUTLINE
 10
5221.1983197572699
 20
3350.2715145002112
 30
0.0
 11
5221.1983197572699
 21
3308.271514500213
 31
0.0
  0
LINE
  5
5B87
  8
OUTLINE
 10
5194.1983197572708
 20
3346.2715145002112
 30
0.0
 11
5194.1983197572708
 21
3312.271514500213
 31
0.0
  0
LINE
  5
5B88
  8
OUTLINE
 10
5194.1983197572708
 20
3346.2715145002112
 30
0.0
 11
5195.6983197572708
 21
3347.7715145002121
 31
0.0
  0
LINE
  5
5B89
  8
OUTLINE
 10
5194.1983197572708
 20
3312.271514500213
 30
0.0
 11
5195.6983197572708
 21
3310.771514500213
 31
0.0
  0
LINE
  5
5B8A
  8
OUTLINE
 10
5244.1983197572708
 20
3345.271514500213
 30
0.0
 11
5252.4983197572719
 21
3345.271514500213
 31
0.0
  0
LINE
  5
5B8B
  8
OUTLINE
 10
5244.1983197572708
 20
3313.271514500213
 30
0.0
 11
5252.4983197572728
 21
3313.271514500213
 31
0.0
  0
LINE
  5
5B8C
  8
OUTLINE
 10
5244.1983197572708
 20
3395.771514500213
 30
0.0
 11
5252.4983197572728
 21
3395.771514500213
 31
0.0
  0
LINE
  5
5B8D
  8
OUTLINE
 10
5244.1983197572708
 20
3427.771514500213
 30
0.0
 11
5252.4983197572719
 21
3427.771514500213
 31
0.0
  0
LINE
  5
5B8E
  8
OUTLINE
 10
5221.1983197572699
 20
3432.771514500213
 30
0.0
 11
5244.1983197572708
 21
3432.771514500213
 31
0.0
  0
LINE
  5
5B8F
  8
OUTLINE
 10
5221.1983197572699
 20
3390.771514500213
 30
0.0
 11
5244.1983197572708
 21
3390.771514500213
 31
0.0
  0
LINE
  5
5B90
  8
OUTLINE
 10
5195.6983197572708
 20
3430.271514500213
 30
0.0
 11
5221.1983197572699
 21
3430.271514500213
 31
0.0
  0
LINE
  5
5B91
  8
OUTLINE
 10
5195.6983197572708
 20
3393.271514500213
 30
0.0
 11
5221.1983197572699
 21
3393.271514500213
 31
0.0
  0
LINE
  5
5B92
  8
OUTLINE
 10
5221.1983197572699
 20
3432.771514500213
 30
0.0
 11
5221.1983197572699
 21
3390.771514500213
 31
0.0
  0
LINE
  5
5B93
  8
OUTLINE
 10
5194.1983197572708
 20
3428.7715145002139
 30
0.0
 11
5194.1983197572708
 21
3394.771514500213
 31
0.0
  0
LINE
  5
5B94
  8
OUTLINE
 10
5194.1983197572708
 20
3428.7715145002139
 30
0.0
 11
5195.6983197572708
 21
3430.271514500213
 31
0.0
  0
LINE
  5
5B95
  8
OUTLINE
 10
5194.1983197572708
 20
3394.771514500213
 30
0.0
 11
5195.6983197572708
 21
3393.271514500213
 31
0.0
  0
LINE
  5
5B96
  8
OUTLINE
 10
5244.1983197572708
 20
3432.771514500213
 30
0.0
 11
5244.1983197572708
 21
3390.771514500213
 31
0.0
  0
LINE
  5
5B97
  8
OUTLINE
  6
CONTINUOUS
 10
5611.5983197572723
 20
4168.9715145002128
 30
0.0
 11
5508.3983197572707
 21
4168.9715145002128
 31
0.0
  0
LINE
  5
5B98
  8
OUTLINE
  6
CONTINUOUS
 10
5509.9983197572701
 20
4150.6715145002127
 30
0.0
 11
5509.9983197572701
 21
4168.9715145002128
 31
0.0
  0
LINE
  5
5B99
  8
OUTLINE
  6
CONTINUOUS
 10
5508.3983197572707
 20
4150.6715145002127
 30
0.0
 11
5508.3983197572707
 21
4168.9715145002128
 31
0.0
  0
LINE
  5
5B9A
  8
OUTLINE
  6
CONTINUOUS
 10
5609.9983197572701
 20
4150.6715145002127
 30
0.0
 11
5609.9983197572701
 21
4168.9715145002128
 31
0.0
  0
LINE
  5
5B9B
  8
OUTLINE
  6
CONTINUOUS
 10
5611.5983197572723
 20
4150.6715145002127
 30
0.0
 11
5611.5983197572723
 21
4168.9715145002128
 31
0.0
  0
LINE
  5
5B9C
  8
OUTLINE
  6
CONTINUOUS
 10
6163.3983197572707
 20
4168.9715145002128
 30
0.0
 11
6266.5983197572714
 21
4168.9715145002128
 31
0.0
  0
LINE
  5
5B9D
  8
OUTLINE
  6
CONTINUOUS
 10
6163.3983197572707
 20
4150.6715145002127
 30
0.0
 11
6163.3983197572707
 21
4168.9715145002128
 31
0.0
  0
LINE
  5
5B9E
  8
OUTLINE
  6
CONTINUOUS
 10
6164.9983197572701
 20
4150.6715145002127
 30
0.0
 11
6164.9983197572701
 21
4168.9715145002128
 31
0.0
  0
LINE
  5
5B9F
  8
OUTLINE
  6
CONTINUOUS
 10
6266.5983197572714
 20
4150.6715145002127
 30
0.0
 11
6266.5983197572714
 21
4168.9715145002128
 31
0.0
  0
LINE
  5
5BA0
  8
OUTLINE
  6
CONTINUOUS
 10
6264.9983197572692
 20
4150.6715145002127
 30
0.0
 11
6264.9983197572701
 21
4168.9715145002128
 31
0.0
  0
LINE
  5
5BA1
  8
OUTLINE
  6
HIDDEN
 10
5609.9983197572701
 20
3264.9715145002142
 30
0.0
 11
5609.9983197572701
 21
3283.2715145002139
 31
0.0
  0
LINE
  5
5BA2
  8
OUTLINE
  6
HIDDEN
 10
5611.5983197572723
 20
3264.9715145002142
 30
0.0
 11
5611.5983197572723
 21
3283.2715145002139
 31
0.0
  0
LINE
  5
5BA3
  8
OUTLINE
  6
HIDDEN
 10
5508.3983197572707
 20
3264.9715145002142
 30
0.0
 11
5508.3983197572707
 21
3283.2715145002139
 31
0.0
  0
LINE
  5
5BA4
  8
OUTLINE
  6
HIDDEN
 10
5611.5983197572723
 20
3264.9715145002119
 30
0.0
 11
5508.3983197572707
 21
3264.9715145002142
 31
0.0
  0
LINE
  5
5BA5
  8
OUTLINE
  6
HIDDEN
 10
6163.3983197572707
 20
3264.9715145002119
 30
0.0
 11
6266.5983197572714
 21
3264.9715145002142
 31
0.0
  0
LINE
  5
5BA6
  8
OUTLINE
  6
HIDDEN
 10
6164.9983197572701
 20
3264.9715145002142
 30
0.0
 11
6164.9983197572701
 21
3283.2715145002139
 31
0.0
  0
LINE
  5
5BA7
  8
OUTLINE
  6
HIDDEN
 10
6163.3983197572707
 20
3264.9715145002142
 30
0.0
 11
6163.3983197572707
 21
3283.2715145002139
 31
0.0
  0
LINE
  5
5BA8
  8
OUTLINE
  6
HIDDEN
 10
6264.9983197572701
 20
3264.9715145002142
 30
0.0
 11
6264.9983197572701
 21
3283.2715145002139
 31
0.0
  0
LINE
  5
5BA9
  8
OUTLINE
  6
HIDDEN
 10
6266.5983197572714
 20
3264.9715145002142
 30
0.0
 11
6266.5983197572714
 21
3283.2715145002139
 31
0.0
  0
CIRCLE
  5
5BAA
  8
OUTLINE
  6
CONTINUOUS
 10
5559.9983197572701
 20
4157.9715145002119
 30
0.0
 40
6.5800000000000001
  0
CIRCLE
  5
5BAB
  8
OUTLINE
  6
CONTINUOUS
 10
5559.9983197572701
 20
3275.971514500211
 30
0.0
 40
6.5800000000000001
  0
CIRCLE
  5
5BAC
  8
OUTLINE
  6
CONTINUOUS
 10
6214.9983197572701
 20
4157.9715145002119
 30
0.0
 40
6.5800000000000001
  0
CIRCLE
  5
5BAD
  8
OUTLINE
  6
CONTINUOUS
 10
6214.9983197572701
 20
3275.9715145002142
 30
0.0
 40
6.5800000000000001
  0
TEXT
  5
5BAE
  8
OVERLAY-A3
 10
5694.0032954917051
 20
221.6624277202018
 30
0.0
 40
48.0
  1
Date
  7
SIMPLEX
  0
TEXT
  5
5BAF
  8
OVERLAY-A3
 10
7492.2223847472042
 20
259.00660404682242
 30
0.0
 40
48.0
  1
Revision
 41
0.7812095035934775
  7
SIMPLEX
 72
     5
 11
7702.9257480021297
 21
259.00660404682242
 31
0.0
  0
LINE
  5
5BB0
  8
OVERLAY-A3
 10
7468.9826999803199
 20
41.684985696634271
 30
0.0
 11
7468.982699980319
 21
336.53731141709312
 31
0.0
  0
LINE
  5
5BB1
  8
OVERLAY-A3
 10
5638.7030589142951
 20
617.06981656574658
 30
0.0
 11
5638.7030589142951
 21
41.684985696634271
 31
0.0
  0
LINE
  5
5BB2
  8
OVERLAY-A3
 10
6833.8273560261878
 20
41.684985696634271
 30
0.0
 11
6833.8273560261878
 21
336.53731141709312
 31
0.0
  0
LINE
  5
5BB3
  8
OVERLAY-A3
 10
6833.8273560261869
 20
186.62519853892741
 30
0.0
 11
5638.7030589142951
 21
186.62519853892741
 31
0.0
  0
LINE
  5
5BB4
  8
OVERLAY-A3
 10
7723.1509304756837
 20
336.53731141709312
 30
0.0
 11
5638.7030589142951
 21
336.53731141709312
 31
0.0
  0
LINE
  5
5BB5
  8
OVERLAY-A3
 10
5638.7030589142951
 20
41.684985696634271
 30
0.0
 11
7722.5559161189822
 21
41.684985696634271
 31
0.0
  0
LINE
  5
5BB6
  8
OVERLAY-A3
 10
7722.5559161189822
 20
41.684985696634271
 30
0.0
 11
7722.5559161189822
 21
617.06981656574658
 31
0.0
  0
LINE
  5
5BB7
  8
OVERLAY-A3
 10
7722.5559161189822
 20
617.06981656574658
 30
0.0
 11
5638.7030589142951
 21
617.06981656574658
 31
0.0
  0
TEXT
  5
5BB8
  8
OVERLAY-A3
 10
5688.9664382062192
 20
95.844976130715395
 30
0.0
 40
40.0
  1
Scale
 41
1.3701747965659721
  7
SIMPLEX
 72
     5
 11
5889.9254083692276
 21
95.844976130715395
 31
0.0
  0
TEXT
  5
5BB9
  8
OVERLAY-A3
 10
6949.7182472015938
 20
257.78686301341941
 30
0.0
 40
40.0
  1
Drawing No.
  7
SIMPLEX
 72
     2
 11
7298.2896757730232
 21
257.78686301341941
 31
0.0
  0
LINE
  5
5BBA
  8
OVERLAY-A3
 10
2539.1319154087901
 20
0.0
 30
0.0
 11
7780.000000000312
 21
0.0
 31
0.0
  0
LINE
  5
5BBB
  8
OVERLAY-A3
 10
7780.000000000312
 20
0.0
 30
0.0
 11
7780.0000000003129
 21
4489.405896617036
 31
0.0
  0
LINE
  5
5BBC
  8
OVERLAY-A3
 10
7780.0000000003129
 20
4489.405896617036
 30
0.0
 11
2539.1319154087901
 21
4489.405896617036
 31
0.0
  0
LINE
  5
5BBD
  8
OVERLAY-A3
 10
2539.1319154087901
 20
4489.405896617036
 30
0.0
 11
2539.1319154087901
 21
0.0
 31
0.0
  0
LINE
  5
5BBE
  8
OUTLINE
  6
HIDDEN
 10
3341.1331778049298
 20
2085.729067512676
 30
0.0
 11
3111.091809846318
 21
2085.729067512676
 31
0.0
  0
LINE
  5
5BBF
  8
CLEAR
  6
PHANTOM2
 10
5252.4983197572728
 20
4150.6715145002127
 30
0.0
 11
4252.4983197572728
 21
4150.6715145002127
 31
0.0
  0
LINE
  5
5BC0
  8
CLEAR
  6
PHANTOM2
 10
5252.4983197572728
 20
3283.2715145002139
 30
0.0
 11
4252.4983197572728
 21
3283.2715145002139
 31
0.0
  0
LINE
  5
5BC1
  8
CLEAR
  6
PHANTOM2
 10
6522.4983197572701
 20
4150.6715145002127
 30
0.0
 11
7522.4983197572701
 21
4150.6715145002117
 31
0.0
  0
LINE
  5
5BC2
  8
CLEAR
  6
PHANTOM2
 10
6522.4983197572701
 20
3283.2715145002139
 30
0.0
 11
7522.4983197572719
 21
3283.2715145002139
 31
0.0
  0
LINE
  5
5BC3
  8
CLEAR
  6
PHANTOM2
 10
4252.4983197572728
 20
3283.2715145002139
 30
0.0
 11
4252.4983197572728
 21
4150.6715145002127
 31
0.0
  0
LINE
  5
5BC4
  8
CLEAR
  6
PHANTOM2
 10
7522.4983197572701
 20
4150.6715145002117
 30
0.0
 11
7522.4983197572719
 21
3283.2715145002139
 31
0.0
  0
TEXT
  5
5BC5
  8
TEXT
  6
PHANTOM2
 10
4332.1605229292327
 20
3501.216978696044
 30
0.0
 40
60.0
  1
1000 min 
 50
90.0
  7
TITLE3
  0
TEXT
  5
5BC6
  8
TEXT
  6
PHANTOM2
 10
4435.017665786374
 20
3458.233914372353
 30
0.0
 40
60.0
  1
CLEARANCE
 50
90.0
  7
TITLE3
  0
TEXT
  5
5BC7
  8
TEXT
  6
PHANTOM2
 10
7373.1219431419358
 20
3501.216978696044
 30
0.0
 40
60.0
  1
1000 min 
 50
90.0
  7
TITLE3
  0
TEXT
  5
5BC8
  8
TEXT
  6
PHANTOM2
 10
7475.9790859990771
 20
3458.233914372353
 30
0.0
 40
60.0
  1
CLEARANCE
 50
90.0
  7
TITLE3
  0
TEXT
  5
5BC9
  8
TEXT
  6
PHANTOM2
 10
5613.9236081210192
 20
3651.6577476611878
 30
0.0
 40
120.0
  1
IJD370
  7
TITLE3
  0
TEXT
  5
5BCA
  8
TEXT
  6
PHANTOM2
 10
5613.9236081210192
 20
1790.1427528426741
 30
0.0
 40
120.0
  1
IJD370
  7
TITLE3
  0
INSERT
  5
5BCB
  8
DIM
  2
NEW_BLOCK
 10
2620.4958918135808
 20
53.48822553894432
 30
0.0
 41
1.050000000000181
 42
1.049999999999994
 43
1.05
  0
LINE
  5
5BCC
  8
DIM
 10
5935.0573970141659
 20
3246.3005205132822
 30
0.0
 11
5906.4814006625011
 21
3199.2964390209631
 31
0.0
  0
LINE
  5
5BCD
  8
DIM
 10
5935.0573970141659
 20
3246.3005205132822
 30
0.0
 11
5963.6333933658298
 21
3199.2964390209631
 31
0.0
  0
LINE
  5
5BCE
  8
DIM
 10
5906.4814006625011
 20
3199.2964390209631
 30
0.0
 11
5924.2303832161342
 21
3199.2964390209631
 31
0.0
  0
LINE
  5
5BCF
  8
DIM
 10
5924.2303832161342
 20
3199.2964390209631
 30
0.0
 11
5924.2303832161342
 21
3144.3105363134168
 31
0.0
  0
LINE
  5
5BD0
  8
DIM
 10
5945.8844108121984
 20
3199.2964390209631
 30
0.0
 11
5945.8844108121984
 21
3144.3105363134168
 31
0.0
  0
LINE
  5
5BD1
  8
DIM
 10
5924.2303832161342
 20
3144.3105363134168
 30
0.0
 11
5945.8844108121984
 21
3144.3105363134168
 31
0.0
  0
LINE
  5
5BD2
  8
DIM
 10
5963.6333933658298
 20
3199.2964390209631
 30
0.0
 11
5945.8844108121984
 21
3199.2964390209631
 31
0.0
  0
LINE
  5
5BD3
  8
DIM
 10
5924.2303832161342
 20
4174.108522290263
 30
0.0
 11
5924.2303832161342
 21
4119.1226195827212
 31
0.0
  0
LINE
  5
5BD4
  8
DIM
 10
5945.8844108121984
 20
4174.108522290263
 30
0.0
 11
5945.8844108121984
 21
4119.1226195827212
 31
0.0
  0
LINE
  5
5BD5
  8
DIM
 10
5924.2303832161342
 20
4119.1226195827212
 30
0.0
 11
5945.8844108121984
 21
4119.1226195827212
 31
0.0
  0
LINE
  5
5BD6
  8
DIM
 10
5935.0573970141659
 20
4221.1126037825852
 30
0.0
 11
5906.4814006625011
 21
4174.108522290263
 31
0.0
  0
LINE
  5
5BD7
  8
DIM
 10
5906.4814006625011
 20
4174.108522290263
 30
0.0
 11
5924.2303832161342
 21
4174.108522290263
 31
0.0
  0
LINE
  5
5BD8
  8
DIM
 10
5963.6333933658298
 20
4174.108522290263
 30
0.0
 11
5945.8844108121984
 21
4174.108522290263
 31
0.0
  0
LINE
  5
5BD9
  8
DIM
 10
5935.0573970141659
 20
4221.1126037825852
 30
0.0
 11
5963.6333933658298
 21
4174.108522290263
 31
0.0
  0
LINE
  5
5BDA
  8
DIM
 10
3015.9884695732071
 20
2130.4299235330609
 30
0.0
 11
3015.9884695732071
 21
2332.893115017017
 31
0.0
  0
LINE
  5
5BDB
  8
DIM
 10
4096.9849606585294
 20
2149.630882124522
 30
0.0
 11
4096.9849606585294
 21
2332.893115017017
 31
0.0
  0
LINE
  5
5BDC
  8
DIM
 10
3075.9884695732071
 20
2292.893115017017
 30
0.0
 11
3416.4867151158678
 21
2292.893115017017
 31
0.0
  0
LINE
  5
5BDD
  8
DIM
 10
4036.984960658529
 20
2292.893115017017
 30
0.0
 11
3696.4867151158678
 21
2292.893115017017
 31
0.0
  0
SOLID
  5
5BDE
  8
DIM
 10
3075.9884695732071
 20
2302.893115017016
 30
0.0
 11
3075.9884695732071
 21
2282.893115017017
 31
0.0
 12
3015.9884695732071
 22
2292.893115017017
 32
0.0
 13
3015.9884695732071
 23
2292.893115017017
 33
0.0
  0
SOLID
  5
5BDF
  8
DIM
 10
4036.984960658529
 20
2302.893115017016
 30
0.0
 11
4036.984960658529
 21
2282.893115017017
 31
0.0
 12
4096.9849606585294
 22
2292.893115017017
 32
0.0
 13
4096.9849606585294
 23
2292.893115017017
 33
0.0
  0
TEXT
  5
5BE0
  8
DIM
 10
3456.4867151158678
 20
2262.893115017017
 30
0.0
 40
60.0
  1
1080
  7
TITLE3
  0
ENDSEC
  0
EOF
