  0
SECTION
  2
HEADER
  9
$ACADVER
  1
AC1009
  9
$INSBASE
 10
0.0
 20
0.0
 30
0.0
  9
$EXTMIN
 10
-100.8835475817213
 20
-0.1326162552832102
 30
-0.0015258207003583
  9
$EXTMAX
 10
5236.8295632291392
 20
4346.0336505022769
 30
0.0000000349246037
  9
$LIMMIN
 10
0.0
 20
0.0
  9
$LIMMAX
 10
3890.0
 20
2660.0
  9
$ORTHOMODE
 70
     1
  9
$REGENMODE
 70
     1
  9
$FILLMODE
 70
     1
  9
$QTEXTMODE
 70
     0
  9
$MIRRTEXT
 70
     0
  9
$DRAGMODE
 70
     2
  9
$LTSCALE
 40
300.0
  9
$OSMODE
 70
     0
  9
$ATTMODE
 70
     1
  9
$TEXTSIZE
 40
40.0
  9
$TRACEWID
 40
0.05
  9
$TEXTSTYLE
  7
TITLE3
  9
$CLAYER
  8
0
  9
$CELTYPE
  6
BYLAYER
  9
$CECOLOR
 62
   256
  9
$DIMSCALE
 40
1.0
  9
$DIMASZ
 40
0.12
  9
$DIMEXO
 40
0.05
  9
$DIMDLI
 40
0.5
  9
$DIMRND
 40
0.0
  9
$DIMDLE
 40
0.0
  9
$DIMEXE
 40
0.1
  9
$DIMTP
 40
0.1
  9
$DIMTM
 40
0.1
  9
$DIMTXT
 40
0.12
  9
$DIMCEN
 40
0.0
  9
$DIMTSZ
 40
0.0
  9
$DIMTOL
 70
     0
  9
$DIMLIM
 70
     0
  9
$DIMTIH
 70
     1
  9
$DIMTOH
 70
     1
  9
$DIMSE1
 70
     0
  9
$DIMSE2
 70
     0
  9
$DIMTAD
 70
     0
  9
$DIMZIN
 70
     7
  9
$DIMBLK
  1

  9
$DIMASO
 70
     0
  9
$DIMSHO
 70
     0
  9
$DIMPOST
  1

  9
$DIMAPOST
  1
mm
  9
$DIMALT
 70
     0
  9
$DIMALTD
 70
     2
  9
$DIMALTF
 40
25.399999999999999
  9
$DIMLFAC
 40
1.0
  9
$DIMTOFL
 70
     0
  9
$DIMTVP
 40
0.0
  9
$DIMTIX
 70
     0
  9
$DIMSOXD
 70
     0
  9
$DIMSAH
 70
     0
  9
$DIMBLK1
  1

  9
$DIMBLK2
  1

  9
$DIMSTYLE
  2
AM_ANSI
  9
$DIMCLRD
 70
   256
  9
$DIMCLRE
 70
   256
  9
$DIMCLRT
 70
     2
  9
$DIMTFAC
 40
0.71
  9
$DIMGAP
 40
0.06
  9
$LUNITS
 70
     2
  9
$LUPREC
 70
     2
  9
$SKETCHINC
 40
0.1
  9
$FILLETRAD
 40
0.0
  9
$AUNITS
 70
     0
  9
$AUPREC
 70
     2
  9
$MENU
  1
\acad12\support\cnc
  9
$ELEVATION
 40
0.0
  9
$PELEVATION
 40
0.0
  9
$THICKNESS
 40
0.0
  9
$LIMCHECK
 70
     0
  9
$BLIPMODE
 70
     0
  9
$CHAMFERA
 40
0.0
  9
$CHAMFERB
 40
0.0
  9
$SKPOLY
 70
     0
  9
$TDCREATE
 40
2451029.6595820598
  9
$TDUPDATE
 40
2455708.596590498
  9
$TDINDWG
 40
0.8397040741
  9
$TDUSRTIMER
 40
0.8397015278
  9
$USRTIMER
 70
     1
  9
$ANGBASE
 50
0.0
  9
$ANGDIR
 70
     0
  9
$PDMODE
 70
     2
  9
$PDSIZE
 40
5.0
  9
$PLINEWID
 40
0.0
  9
$COORDS
 70
     1
  9
$SPLFRAME
 70
     0
  9
$SPLINETYPE
 70
     6
  9
$SPLINESEGS
 70
     8
  9
$ATTDIA
 70
     1
  9
$ATTREQ
 70
     1
  9
$HANDLING
 70
     1
  9
$HANDSEED
  5
76BD
  9
$SURFTAB1
 70
     6
  9
$SURFTAB2
 70
     6
  9
$SURFTYPE
 70
     6
  9
$SURFU
 70
     6
  9
$SURFV
 70
     6
  9
$UCSNAME
  2

  9
$UCSORG
 10
0.0
 20
0.0
 30
0.0
  9
$UCSXDIR
 10
1.0
 20
0.0
 30
0.0
  9
$UCSYDIR
 10
0.0
 20
1.0
 30
0.0
  9
$PUCSNAME
  2

  9
$PUCSORG
 10
0.0
 20
0.0
 30
0.0
  9
$PUCSXDIR
 10
1.0
 20
0.0
 30
0.0
  9
$PUCSYDIR
 10
0.0
 20
1.0
 30
0.0
  9
$USERI1
 70
     0
  9
$USERI2
 70
     0
  9
$USERI3
 70
     0
  9
$USERI4
 70
     0
  9
$USERI5
 70
     0
  9
$USERR1
 40
0.0
  9
$USERR2
 40
0.0
  9
$USERR3
 40
0.0
  9
$USERR4
 40
0.0
  9
$USERR5
 40
0.0
  9
$WORLDVIEW
 70
     1
  9
$SHADEDGE
 70
     3
  9
$SHADEDIF
 70
    70
  9
$TILEMODE
 70
     1
  9
$MAXACTVP
 70
    16
  9
$PLIMCHECK
 70
     0
  9
$PEXTMIN
 10
1.0000000000000000E+020
 20
1.0000000000000000E+020
 30
1.0000000000000000E+020
  9
$PEXTMAX
 10
-1.0000000000000000E+020
 20
-1.0000000000000000E+020
 30
-1.0000000000000000E+020
  9
$PLIMMIN
 10
0.0
 20
0.0
  9
$PLIMMAX
 10
12.0
 20
9.0
  9
$UNITMODE
 70
     0
  9
$VISRETAIN
 70
     0
  9
$PLINEGEN
 70
     0
  9
$PSLTSCALE
 70
     0
  0
ENDSEC
  0
SECTION
  2
TABLES
  0
TABLE
  2
VPORT
 70
     1
  0
VPORT
  2
*ACTIVE
 70
     0
 10
0.0
 20
0.0
 11
1.0
 21
1.0
 12
0.0963424342139661
 22
487.17532698122562
 13
0.0
 23
0.0
 14
25.0
 24
25.0
 15
100.0
 25
100.0
 16
0.0
 26
0.0
 36
1.0
 17
2567.876665389495
 27
1685.775190142271
 37
0.0
 40
4375.4005690003241
 41
1.60381593714927
 42
50.0
 43
0.0
 44
0.0
 50
0.0
 51
0.0
 71
     0
 72
   100
 73
     1
 74
     0
 75
     0
 76
     0
 77
     0
 78
     0
  0
ENDTAB
  0
TABLE
  2
LTYPE
 70
    19
  0
LTYPE
  2
CONTINUOUS
 70
     0
  3
Solid line
 72
    65
 73
     0
 40
0.0
  0
LTYPE
  2
HIDDEN
 70
     0
  3
Hidden __ __ __ __ __ __ __ __ __ __ __ __ __ _
 72
    65
 73
     2
 40
0.375
 49
0.25
 49
-0.125
  0
LTYPE
  2
PHANTOM2
 70
     0
  3
Phantom (.5x) ___ _ _ ___ _ _ ___ _ _ ___ _ _
 72
    65
 73
     6
 40
1.25
 49
0.625
 49
-0.125
 49
0.125
 49
-0.125
 49
0.125
 49
-0.125
  0
LTYPE
  2
CENTER
 70
     0
  3
Center ____ _ ____ _ ____ _ ____ _ ____ _ ____
 72
    65
 73
     4
 40
2.0
 49
1.25
 49
-0.25
 49
0.25
 49
-0.25
  0
LTYPE
  2
AMCONSTR
 70
     0
  3
_______________________
 72
    65
 73
     2
 40
9999.0
 49
9999.0
 49
0.0
  0
LTYPE
  2
CENTER2
 70
     0
  3
Center (.5x) ___ _ ___ _ ___ _ ___ _ ___ _ ___
 72
    65
 73
     4
 40
1.125
 49
0.75
 49
-0.125
 49
0.125
 49
-0.125
  0
LTYPE
  2
HIDDEN2
 70
     0
  3
Hidden (.5x) _ _ _ _ _ _ _ _ _ _ _ _ _ _ _ _ _
 72
    65
 73
     2
 40
0.1875
 49
0.125
 49
-0.0625
  0
LTYPE
  2
AMZIGZAG2
 70
     0
  3
/\/-/\/-/\/-/\/-/\/-/\/
 72
    65
 73
     2
 40
0.4401
 49
0.0001
 49
-0.4400000000000003
  0
LTYPE
  2
ACANSTGB
 70
     0
  3
__ . . __ . .
 72
    65
 73
     6
 40
0.35433070866
 49
0.15748031496
 49
-0.03937007874
 49
0.03937007874
 49
-0.03937007874
 49
0.03937007874
 49
-0.03937007874
  0
LTYPE
  2
ACANSTGL
 70
     0
  3
_ _ _ _ _
 72
    65
 73
     2
 40
0.11811023622
 49
0.07874015748
 49
-0.03937007874
  0
LTYPE
  2
ASULTYPE
 70
     0
  3
Solid line
 72
    65
 73
     2
 40
3.0
 49
2.5
 49
0.5
  0
LTYPE
  2
ASVLTYPE
 70
     0
  3
__ __ __ __ __ __ __ __ __ __ __ __ __ __ __ __ __ __ __ __ __
 72
    65
 73
     2
 40
0.75
 49
0.5
 49
-0.25
  0
LTYPE
  2
AM_ISO02W050
 70
     0
  3
__ __ __ __ __ __ __ __ __ __ __ __ __ __ __
 72
    65
 73
     2
 40
7.5
 49
6.0
 49
-1.5
  0
LTYPE
  2
AM_ISO08W050
 70
     0
  3
____ . ____ . ____ . ____ . ____ . ____ . ____
 72
    65
 73
     4
 40
18.0
 49
12.0
 49
-1.5
 49
3.0
 49
-1.5
  0
LTYPE
  2
AM_ISO09W050
 70
     0
  3
_____ . . _____ . . _____ . . ____ .. ____
 72
    65
 73
     6
 40
22.5
 49
12.0
 49
-1.5
 49
3.0
 49
-1.5
 49
3.0
 49
-1.5
  0
LTYPE
  2
AM_ISO08W050X2
 70
     0
  3
__ . __ . __ . __ . __ . __
 72
    65
 73
     4
 40
9.0
 49
6.0
 49
-0.75
 49
1.5
 49
-0.75
  0
LTYPE
  2
AM_ISO02W050X2
 70
     0
  3
 _ _ _ _ _ _ _ _ _ _ _ _
 72
    65
 73
     2
 40
3.75
 49
3.0
 49
-0.75
  0
LTYPE
  2
AMZIGZAG
 70
     0
  3
/\/-/\/-/\/-/\/-/\/-/\/
 72
    65
 73
     2
 40
11.0001
 49
0.0001
 49
-11.0
  0
ENDTAB
  0
TABLE
  2
LAYER
 70
     2
  0
LAYER
  2
0
 70
     0
 62
     7
  6
CONTINUOUS
  0
LAYER
  2
DIM
 70
     0
 62
     7
  6
CONTINUOUS
  0
ENDTAB
  0
TABLE
  2
STYLE
 70
     8
  0
STYLE
  2
STANDARD
 70
     0
 40
0.0
 41
1.0
 50
0.0
 71
     0
 42
0.2
  3
txt
  4

  0
STYLE
  2
ANNOTATIVE
 70
     0
 40
0.0
 41
1.0
 50
0.0
 71
     0
 42
0.2
  3
txt
  4

  0
STYLE
  2
TITLE3
 70
     0
 40
40.0
 41
1.0
 50
0.0
 71
     0
 42
40.0
  3
SIMPLEX.shx
  4

  0
STYLE
  2
SIMPLEX
 70
     0
 40
40.0
 41
1.0
 50
0.0
 71
     0
 42
25.0
  3
SIMPLEX
  4

  0
STYLE
  2
TITLE5
 70
     0
 40
50.0
 41
1.0
 50
0.0
 71
     0
 42
50.0
  3
SIMPLEX.shx
  4

  0
STYLE
  2
ACANSTS
 70
     0
 40
1.0
 41
1.0
 50
0.0
 71
     0
 42
40.0
  3
romans.shx
  4

  0
STYLE
  2
ACANSGDT
 70
     0
 40
0.0
 41
1.0
 50
0.0
 71
     0
 42
40.0
  3
amgdt.shx
  4

  0
STYLE
  2

 70
     1
 40
0.0
 41
1.0
 50
0.0
 71
     0
 42
40.0
  3
genltshp.shx
  4

  0
ENDTAB
  0
TABLE
  2
VIEW
 70
     0
  0
ENDTAB
  0
TABLE
  2
UCS
 70
     0
  0
ENDTAB
  0
TABLE
  2
APPID
 70
    27
  0
APPID
  2
ACAD
 70
     0
  0
APPID
  2
ACADANNOTATIVE
 70
     0
  0
APPID
  2
ACAD_MLEADERVER
 70
     0
  0
APPID
  2
DCO15
 70
     0
  0
APPID
  2
GENIUS_GENDIM_13
 70
     0
  0
APPID
  2
GENIUS_GENDTOL_13
 70
     0
  0
APPID
  2
GENIUS_GE3DTOL_13
 70
     0
  0
APPID
  2
MCAD_NO_VIS
 70
     0
  0
APPID
  2
ACAD_TEMP_GRAPHIC
 70
     0
  0
APPID
  2
AD_DRAW
 70
     0
  0
APPID
  2
ACATTRIBSERVICES
 70
     0
  0
APPID
  2
ASURF_PCURVE_APPNAME
 70
     0
  0
APPID
  2
AMG_3D2D_5_0
 70
     0
  0
APPID
  2
DESIGNERASSEMBLIES
 70
     0
  0
APPID
  2
ACADM_DIM_EDIT
 70
     0
  0
APPID
  2
AMDT_DM_ADJ
 70
     0
  0
APPID
  2
ACAD_PSEXT
 70
     0
  0
APPID
  2
ACAD_EXEMPT_FROM_CAD_STANDARDS
 70
     0
  0
APPID
  2
AMG_3D2D_5_00
 70
     0
  0
APPID
  2
AMG_3D2D_5_01
 70
     0
  0
APPID
  2
AMG_3D2D_5_02
 70
     0
  0
APPID
  2
AMG_3D2D_5_03
 70
     0
  0
APPID
  2
AMG_3D2D_5_04
 70
     0
  0
APPID
  2
AMG_3D2D_5_05
 70
     0
  0
APPID
  2
AMG_3D2D_5_06
 70
     0
  0
APPID
  2
ACAD_DSTYLE_DIMBREAK
 70
     0
  0
APPID
  2
ACAD_DSTYLE_DIMJAG
 70
     0
  0
ENDTAB
  0
TABLE
  2
DIMSTYLE
 70
     8
  0
DIMSTYLE
  2
STANDARD
 70
     0
  3

  4

  5

  6

  7

 40
1.0
 41
0.18
 42
0.0625
 43
0.38
 44
0.18
 45
0.0
 46
0.0
 47
0.0
 48
0.0
140
0.18
141
0.09
142
0.0
143
25.399999999999999
144
1.0
145
0.0
146
1.0
147
0.09
 71
     0
 72
     0
 73
     1
 74
     1
 75
     0
 76
     0
 77
     0
 78
     0
170
     0
171
     2
172
     0
173
     0
174
     0
175
     0
176
     0
177
     0
178
     0
  0
DIMSTYLE
  2
ANNOTATIVE
 70
     0
  3

  4

  5

  6

  7

 40
1.0
 41
0.18
 42
0.0625
 43
0.38
 44
0.18
 45
0.0
 46
0.0
 47
0.0
 48
0.0
140
0.18
141
0.09
142
0.0
143
25.399999999999999
144
1.0
145
0.0
146
1.0
147
0.09
 71
     0
 72
     0
 73
     1
 74
     1
 75
     0
 76
     0
 77
     0
 78
     0
170
     0
171
     2
172
     0
173
     0
174
     0
175
     0
176
     0
177
     0
178
     0
  0
DIMSTYLE
  2
AM_ANSI
 70
     0
  3

  4
mm
  5

  6

  7

 40
1.0
 41
0.12
 42
0.05
 43
0.5
 44
0.1
 45
0.0
 46
0.0
 47
0.1
 48
0.1
140
0.12
141
0.0
142
0.0
143
25.399999999999999
144
1.0
145
0.0
146
0.71
147
0.06
 71
     0
 72
     0
 73
     1
 74
     1
 75
     0
 76
     0
 77
     0
 78
     7
170
     0
171
     2
172
     0
173
     0
174
     0
175
     0
176
   256
177
   256
178
     2
  0
DIMSTYLE
  2
AM_ANSI$3
 70
     0
  3

  4
mm
  5

  6

  7

 40
1.0
 41
0.12
 42
0.05
 43
0.5
 44
0.1
 45
0.0
 46
0.0
 47
0.1
 48
0.1
140
0.12
141
0.0
142
0.0
143
25.399999999999999
144
1.0
145
0.0
146
0.71
147
0.06
 71
     0
 72
     0
 73
     1
 74
     1
 75
     0
 76
     0
 77
     0
 78
     7
170
     0
171
     2
172
     0
173
     0
174
     0
175
     0
176
   256
177
   256
178
     2
  0
DIMSTYLE
  2
AM_ANSI$4
 70
     0
  3

  4
mm
  5

  6

  7

 40
1.0
 41
0.12
 42
0.05
 43
0.5
 44
0.1
 45
0.0
 46
0.0
 47
0.1
 48
0.1
140
0.12
141
0.0
142
0.0
143
25.399999999999999
144
1.0
145
0.0
146
0.71
147
0.06
 71
     0
 72
     0
 73
     1
 74
     1
 75
     0
 76
     0
 77
     0
 78
     7
170
     0
171
     2
172
     0
173
     0
174
     0
175
     0
176
   256
177
   256
178
     2
  0
DIMSTYLE
  2
AM_ANSI$7
 70
     0
  3

  4
mm
  5

  6

  7

 40
1.0
 41
0.12
 42
0.05
 43
0.5
 44
0.1
 45
0.0
 46
0.0
 47
0.1
 48
0.1
140
0.12
141
0.0
142
0.0
143
25.399999999999999
144
1.0
145
0.0
146
0.71
147
0.06
 71
     0
 72
     0
 73
     1
 74
     1
 75
     0
 76
     0
 77
     0
 78
     7
170
     0
171
     2
172
     0
173
     0
174
     0
175
     0
176
   256
177
   256
178
     2
  0
DIMSTYLE
  2
AM_ANSI$SF
 70
     0
  3

  4
mm
  5

  6

  7

 40
1.0
 41
0.12
 42
0.05
 43
0.5
 44
0.1
 45
0.0
 46
0.0
 47
0.1
 48
0.1
140
0.12
141
0.0
142
0.0
143
25.399999999999999
144
1.0
145
0.0
146
0.71
147
0.06
 71
     0
 72
     0
 73
     1
 74
     1
 75
     1
 76
     1
 77
     0
 78
     7
170
     0
171
     2
172
     0
173
     0
174
     0
175
     0
176
   256
177
   256
178
     2
  0
DIMSTYLE
  2
AM_ANSI$SH
 70
     0
  3

  4
mm
  5

  6

  7

 40
1.0
 41
0.12
 42
0.05
 43
0.5
 44
0.1
 45
0.0
 46
0.0
 47
0.1
 48
0.1
140
0.12
141
0.0
142
0.0
143
25.399999999999999
144
1.0
145
0.0
146
0.71
147
0.06
 71
     0
 72
     0
 73
     1
 74
     1
 75
     1
 76
     1
 77
     0
 78
     7
170
     0
171
     2
172
     0
173
     1
174
     0
175
     0
176
   256
177
   256
178
     2
  0
ENDTAB
  0
ENDSEC
  0
SECTION
  2
BLOCKS
  0
BLOCK
  8
0
  2
$MODEL_SPACE
 70
     0
 10
0.0
 20
0.0
 30
0.0
  3
$MODEL_SPACE
  1

  0
ENDBLK
  5
7596
  8
0
  0
BLOCK
 67
     1
  8
0
  2
$PAPER_SPACE
 70
     0
 10
0.0
 20
0.0
 30
0.0
  3
$PAPER_SPACE
  1

  0
ENDBLK
  5
7592
 67
     1
  8
0
  0
BLOCK
  8
0
  2
LINES
 70
     0
 10
0.0
 20
0.0
 30
0.0
  3
LINES
  1

  0
ENDBLK
  5
5C9B
  8
0
  0
BLOCK
  8
0
  2
*U3
 70
     1
 10
0.0
 20
0.0
 30
0.0
  3
*U3
  1

  0
TEXT
  5
65DD
  8
0
 62
    50
 10
1031.2860143388821
 20
170.3881507218041
 30
0.0
 40
30.0
  1
189.5
  0
ENDBLK
  5
65DF
  8
0
  0
BLOCK
  8
0
  2
*U4
 70
     1
 10
0.0
 20
0.0
 30
0.0
  3
*U4
  1

  0
TEXT
  5
65E1
  8
0
 62
    50
 10
1478.5360143388821
 20
171.58350267863941
 30
0.0
 40
30.0
  1
675
  0
ENDBLK
  5
65E3
  8
0
  0
BLOCK
  8
0
  2
*U5
 70
     1
 10
0.0
 20
0.0
 30
0.0
  3
*U5
  1

  0
TEXT
  5
65E5
  8
0
 62
    50
 10
917.13826272372387
 20
570.16527187624627
 30
0.0
 40
30.0
  1
813 O/A
 50
90.0
  0
ENDBLK
  5
65E7
  8
0
  0
BLOCK
  8
0
  2
*U6
 70
     1
 10
0.0
 20
0.0
 30
0.0
  3
*U6
  1

  0
TEXT
  5
65E9
  8
0
 62
    50
 10
1447.5376771963131
 20
1167.9581634812901
 30
0.0
 40
30.0
  1
1112 O/A
  0
ENDBLK
  5
65EB
  8
0
  0
BLOCK
  8
0
  2
*U7
 70
     1
 10
0.0
 20
0.0
 30
0.0
  3
*U7
  1

  0
TEXT
  5
65ED
  8
0
 62
    50
 10
1471.0341133380871
 20
1105.371994312374
 30
0.0
 40
30.0
  1
1054
  0
ENDBLK
  5
65EF
  8
0
  0
BLOCK
  8
0
  2
*U8
 70
     1
 10
0.0
 20
0.0
 30
0.0
  3
*U8
  1

  0
TEXT
  5
65F1
  8
0
 62
    50
 10
2206.700784962647
 20
86.997154171707564
 30
0.0
 40
30.0
  1
106
 50
90.0
  0
ENDBLK
  5
65F3
  8
0
  0
BLOCK
  8
0
  2
*U9
 70
     1
 10
0.0
 20
0.0
 30
0.0
  3
*U9
  1

  0
TEXT
  5
65F5
  8
0
 62
    50
 10
2206.82324965015
 20
466.16382083837431
 30
0.0
 40
30.0
  1
283
 50
90.0
  0
ENDBLK
  5
65F7
  8
0
  0
BLOCK
  8
0
  2
*U10
 70
     1
 10
0.0
 20
0.0
 30
0.0
  3
*U10
  1

  0
TEXT
  5
65F9
  8
0
 62
    50
 10
2206.8315954361319
 20
858.53646251045302
 30
0.0
 40
30.0
  1
225
 50
90.0
  0
ENDBLK
  5
65FB
  8
0
  0
BLOCK
  8
0
  2
*U11
 70
     1
 10
0.0
 20
0.0
 30
0.0
  3
*U11
  1

  0
TEXT
  5
65FD
  8
0
 62
    50
 10
2206.8315954361319
 20
685.45392344622724
 30
0.0
 40
30.0
  1
137
 50
90.0
  0
ENDBLK
  5
65FF
  8
0
  0
BLOCK
  8
0
  2
*U12
 70
     1
 10
0.0
 20
0.0
 30
0.0
  3
*U12
  1

  0
TEXT
  5
6601
  8
0
 62
    50
 10
2373.9955588983712
 20
184.29333757662201
 30
0.0
 40
30.0
  1
8
  0
ENDBLK
  5
6603
  8
0
  0
BLOCK
  8
0
  2
*U13
 70
     1
 10
0.0
 20
0.0
 30
0.0
  3
*U13
  1

  0
TEXT
  5
6605
  8
0
 62
    50
 10
2981.1622255650391
 20
184.92214763907981
 30
0.0
 40
30.0
  1
1185 CTRS
  0
ENDBLK
  5
6607
  8
0
  0
BLOCK
  8
0
  2
*U14
 70
     1
 10
0.0
 20
0.0
 30
0.0
  3
*U14
  1

  0
TEXT
  5
6609
  8
0
 62
    50
 10
2995.6622255650391
 20
121.2614080249718
 30
0.0
 40
30.0
  1
1200 O/A
  0
ENDBLK
  5
660B
  8
0
  0
BLOCK
  8
0
  2
*U15
 70
     1
 10
0.0
 20
0.0
 30
0.0
  3
*U15
  1

  0
TEXT
  5
660D
  8
0
 62
    50
 10
2352.9955588983712
 20
1107.463991857466
 30
0.0
 40
30.0
  1
78
  0
ENDBLK
  5
660F
  8
0
  0
BLOCK
  8
0
  2
*U16
 70
     1
 10
0.0
 20
0.0
 30
0.0
  3
*U16
  1

  0
TEXT
  5
6611
  8
0
 62
    50
 10
3071.1622255650391
 20
1107.4604864515941
 30
0.0
 40
30.0
  1
1062
  0
ENDBLK
  5
6613
  8
0
  0
BLOCK
  8
0
  2
*U17
 70
     1
 10
0.0
 20
0.0
 30
0.0
  3
*U17
  1

  0
TEXT
  5
6615
  8
0
 62
    50
 10
2372.9955588983712
 20
1168.621036867208
 30
0.0
 40
30.0
  1
162
  0
ENDBLK
  5
6617
  8
0
  0
BLOCK
  8
0
  2
*U18
 70
     1
 10
0.0
 20
0.0
 30
0.0
  3
*U18
  1

  0
TEXT
  5
6619
  8
0
 62
    50
 10
3064.1622255650368
 20
1168.621036867208
 30
0.0
 40
30.0
  1
860
  0
ENDBLK
  5
661B
  8
0
  0
BLOCK
  8
0
  2
*U19
 70
     1
 10
0.0
 20
0.0
 30
0.0
  3
*U19
  1

  0
TEXT
  5
661D
  8
0
 62
    50
 10
3056.1622255650391
 20
1234.771352148357
 30
0.0
 40
30.0
  1
1183
  0
ENDBLK
  5
661F
  8
0
  0
BLOCK
  8
0
  2
GENAXEH
 70
     0
 10
0.0
 20
0.0
 30
0.0
  3
GENAXEH
  1

  0
LINE
  5
705A
  8
0
 10
-1.0
 20
0.0
 30
0.0
 11
1.0
 21
0.0
 31
0.0
  0
ENDBLK
  5
705C
  8
0
  0
ENDSEC
  0
SECTION
  2
ENTITIES
  0
TEXT
  5
5CA6
  8
0
 62
     7
 10
3904.0589381459031
 20
414.13045924945669
 30
0.0
 40
59.999999998499987
  1
temperzone OPA 135RKTH
  7
TITLE5
 72
     1
 11
4501.2017952738306
 21
414.13045924945669
 31
0.0
  0
TEXT
  5
5CA7
  8
0
 62
     7
 10
4623.3333332189959
 20
93.333333330999949
 30
0.0
 40
39.999999998999989
  1
OPA135RKTH
 41
1.0410256410256511
  7
TITLE3
 72
     5
 11
5009.9999998760004
 21
93.333333330999949
 31
0.0
  0
TEXT
  5
5CA8
  8
0
 62
     7
 10
3841.201795290332
 20
324.27673722327802
 30
0.0
 40
59.999999998499987
  1
FOOT MTD HORIZ DISCHARGE
  7
TITLE5
 72
     1
 11
4501.2017952738306
 21
324.27673722327802
 31
0.0
  0
INSERT
  5
5CA9
  8
DIM
  2
LINES
 10
331.16901791101679
 20
3587.504837768558
 30
0.0
  0
TEXT
  5
5CAA
  8
0
 62
     7
 10
4015.8550654735809
 20
146.666666663
 30
0.0
 40
39.999999998999989
  1
26-05-11
 41
0.7320261437908647
  7
TITLE3
 72
     5
 11
4229.1883988015852
 21
146.666666663
 31
0.0
  0
LINE
  5
5CCE
  8
0
 62
     7
 10
991.53601433888161
 20
2069.1305085760282
 30
0.0
 11
2045.5360143388821
 21
2069.1305085760282
 31
0.0
  0
LINE
  5
5CD7
  8
0
 62
     7
 10
2045.5360143388821
 20
3252.1305085760309
 30
0.0
 11
2045.5360143388821
 21
2069.1305085760282
 31
0.0
  0
LINE
  5
5CF1
  8
0
 62
     7
 10
2045.5322123372921
 20
1061.666722914119
 30
0.0
 11
991.53601433888161
 21
1061.6667229141181
 31
0.0
  0
LINE
  5
5CF2
  8
0
 62
     7
 10
991.53601433888161
 20
1061.6667229141181
 30
0.0
 11
991.53601433888161
 21
290.66382083837402
 31
0.0
  0
LINE
  5
5CF7
  8
0
 62
     7
 10
2045.532212337293
 20
290.66382083837402
 30
0.0
 11
2045.5322123372921
 21
1061.666722914119
 31
0.0
  0
LINE
  5
5CF8
  8
0
 62
     7
 10
2103.5393400537459
 20
1009.663820838374
 30
0.0
 11
2103.5393400537459
 21
784.66382083837414
 31
0.0
  0
LINE
  5
5CF9
  8
0
 62
     7
 10
2103.4722123372931
 20
647.66382083837391
 30
0.0
 11
2103.472212337294
 21
364.66382083837402
 31
0.0
  0
LINE
  5
5D0B
  8
0
 62
     7
 10
991.53601433888161
 20
290.66382083837402
 30
0.0
 11
2045.532212337293
 21
290.66382083837402
 31
0.0
  0
INSERT
  5
5D33
  8
DIM
  2
LINES
 10
254.36135100316409
 20
12950.844675060671
 30
0.0
  0
INSERT
  5
5D34
  8
DIM
  2
LINES
 10
4447.4749797806317
 20
10493.25690705025
 30
0.0
  0
TEXT
  5
5D35
  8
DIM
 10
9638.0424665801456
 20
11898.17011078995
 30
0.0
 40
15.0
  1

  7
TITLE3
 72
     1
 11
9638.0424665801456
 21
11898.17011078995
 31
0.0
  0
TEXT
  5
5D36
  8
DIM
 10
9638.0424665801456
 20
11898.17011078995
 30
0.0
 40
15.0
  1

  7
TITLE3
 72
     1
 11
9638.0424665801456
 21
11898.17011078995
 31
0.0
  0
TEXT
  5
5D37
  8
DIM
 10
14638.04246658014
 20
11898.17011078995
 30
0.0
 40
15.0
  1

  7
TITLE3
 72
     1
 11
14638.04246658014
 21
11898.17011078995
 31
0.0
  0
TEXT
  5
5D38
  8
DIM
 10
14638.04246658014
 20
11898.17011078995
 30
0.0
 40
15.0
  1

  7
TITLE3
 72
     1
 11
14638.04246658014
 21
11898.17011078995
 31
0.0
  0
LINE
  5
5D39
  8
0
 62
     7
 10
1392.2845354042799
 20
984.832468067484
 30
0.0
 11
1352.98453540428
 21
1024.1324680674811
 31
0.0
  0
LINE
  5
5D3A
  8
0
 62
     7
 10
1313.68453540428
 20
984.832468067484
 30
0.0
 11
1352.98453540428
 21
1024.1324680674811
 31
0.0
  0
LINE
  5
5D3B
  8
0
 62
     7
 10
1338.2845354042799
 20
929.33246806748411
 30
0.0
 11
1367.68453540428
 21
929.33246806748411
 31
0.0
  0
LINE
  5
5D3C
  8
0
 62
     7
 10
1367.68453540428
 20
929.33246806748411
 30
0.0
 11
1367.68453540428
 21
984.832468067484
 31
0.0
  0
LINE
  5
5D3D
  8
0
 62
     7
 10
1367.68453540428
 20
984.832468067484
 30
0.0
 11
1392.2845354042799
 21
984.832468067484
 31
0.0
  0
LINE
  5
5D3E
  8
0
 62
     7
 10
1338.2845354042799
 20
929.33246806748411
 30
0.0
 11
1338.2845354042799
 21
984.832468067484
 31
0.0
  0
LINE
  5
5D3F
  8
0
 62
     7
 10
1338.2845354042799
 20
984.832468067484
 30
0.0
 11
1313.68453540428
 21
984.832468067484
 31
0.0
  0
TEXT
  5
5D40
  8
0
 62
     7
 10
3841.5837005335761
 20
147.77495181346791
 30
0.0
 40
31.999999999999989
  1
Date
  7
SIMPLEX
  0
TEXT
  5
5D41
  8
0
 62
     7
 10
5044.8149231648031
 20
172.67106936454809
 30
0.0
 40
31.999999999999989
  1
Revision
 41
0.7812095035934779
  7
SIMPLEX
 72
     5
 11
5185.2838320014198
 21
172.67106936454809
 31
0.0
  0
LINE
  5
5D42
  8
0
 62
     7
 10
5029.3217999868793
 20
27.789990464422839
 30
0.0
 11
5029.3217999868793
 21
224.3582076113955
 31
0.0
  0
LINE
  5
5D43
  8
0
 62
     7
 10
3809.135372609529
 20
502.95297128913938
 30
0.0
 11
3809.135372609529
 21
27.789990464422839
 31
0.0
  0
LINE
  5
5D44
  8
0
 62
     7
 10
4605.8849040174582
 20
27.789990464422839
 30
0.0
 11
4605.8849040174582
 21
224.3582076113955
 31
0.0
  0
LINE
  5
5D45
  8
0
 62
     7
 10
4605.8849040174564
 20
124.41679902595151
 30
0.0
 11
3809.135372609529
 21
124.41679902595151
 31
0.0
  0
LINE
  5
5D46
  8
0
 62
     7
 10
5198.767286983787
 20
224.3582076113955
 30
0.0
 11
3809.135372609529
 21
224.3582076113955
 31
0.0
  0
LINE
  5
5D47
  8
0
 62
     7
 10
3809.135372609529
 20
27.789990464422839
 30
0.0
 11
5198.3706107459848
 21
27.789990464422839
 31
0.0
  0
LINE
  5
5D48
  8
0
 62
     7
 10
5198.3706107459848
 20
27.789990464422839
 30
0.0
 11
5198.3706107459848
 21
502.95297128913938
 31
0.0
  0
LINE
  5
5D49
  8
0
 62
     7
 10
5198.3706107459848
 20
502.95297128913938
 30
0.0
 11
3809.135372609529
 21
502.95297128913938
 31
0.0
  0
TEXT
  5
5D4A
  8
0
 62
     7
 10
3842.6442921374801
 20
63.896650753810242
 30
0.0
 40
26.666666666666661
  1
Scale
 41
1.3701747965659661
  7
SIMPLEX
 72
     5
 11
3976.616938912819
 21
63.896650753810242
 31
0.0
  0
TEXT
  5
5D4B
  8
0
 62
     7
 10
4683.1454981343959
 20
171.8579086756128
 30
0.0
 40
26.666666666666661
  1
Drawing No.
  7
SIMPLEX
 72
     2
 11
4915.5264505153482
 21
171.8579086756128
 31
0.0
  0
LINE
  5
5D4C
  8
0
 62
     7
 10
-100.7206758733973
 20
0.0
 30
0.0
 11
5236.6666666666652
 21
0.0
 31
0.0
  0
LINE
  5
5D4D
  8
0
 62
     7
 10
5236.6666666666652
 20
0.0
 30
0.0
 11
5236.6666666666642
 21
4345.9010140098144
 31
0.0
  0
LINE
  5
5D4E
  8
0
 62
     7
 10
5236.6666666666642
 20
4345.9010140098144
 30
0.0
 11
-100.7206758733973
 21
4345.9010140098144
 31
0.0
  0
LINE
  5
5D4F
  8
0
 62
     7
 10
-100.7206758733973
 20
4345.9010140098144
 30
0.0
 11
-100.7206758733973
 21
0.0
 31
0.0
  0
TEXT
  5
5D51
  8
0
 62
     7
 10
4047.82656048435
 20
60.615948988497621
 30
0.0
 40
40.0
  1
1:20
  7
TITLE3
  0
LINE
  5
5D54
  8
0
  6
PHANTOM2
 62
     7
 10
491.53242631655479
 20
3250.954397069755
 30
0.0
 11
491.53242631655479
 21
2069.1305085760282
 31
0.0
  0
LINE
  5
5D55
  8
0
  6
PHANTOM2
 62
     7
 10
990.92545630160907
 20
1569.130508576028
 30
0.0
 11
2045.5360143388821
 21
1569.130508576028
 31
0.0
  0
LINE
  5
5D56
  8
0
  6
PHANTOM2
 62
     7
 10
961.67367560196385
 20
3250.954397069755
 30
0.0
 11
491.53242631655479
 21
3250.954397069755
 31
0.0
  0
LINE
  5
5D57
  8
0
  6
PHANTOM2
 62
     7
 10
961.67367560196385
 20
2069.1305085760282
 30
0.0
 11
491.53242631655479
 21
2069.1305085760282
 31
0.0
  0
LINE
  5
5D59
  8
0
  6
PHANTOM2
 62
     7
 10
2045.5360143388821
 20
2023.409551263052
 30
0.0
 11
2045.5360143388821
 21
1569.130508576028
 31
0.0
  0
TEXT
  5
5D5A
  8
0
 62
     7
 10
1179.5965638822879
 20
1593.7792689949381
 30
0.0
 40
40.0
  1
500 min CLEARANCE
  7
TITLE3
  0
TEXT
  5
5D5B
  8
0
 62
     7
 10
565.69915545024276
 20
2363.2319797424211
 30
0.0
 40
40.0
  1
500 min CLEARANCE
 50
90.0
  7
TITLE3
  0
TEXT
  5
5D5C
  8
0
 62
     7
 10
1283.8593115216579
 20
2822.4500451508179
 30
0.0
 40
62.999999998424997
  1
OPA
  7
TITLE5
 72
     1
 11
1372.359311519446
 21
2822.4500451508179
 31
0.0
  0
TEXT
  5
5D5E
  8
0
 62
     7
 10
1213.086141007527
 20
638.35546757354246
 30
0.0
 40
62.999999998424997
  1
OPA135RKTH
  7
TITLE5
 72
     1
 11
1505.5861410002151
 21
638.35546757354246
 31
0.0
  0
LINE
  5
5D5F
  8
0
 62
     7
 10
991.53601433888161
 20
3252.1305085760282
 30
0.0
 11
2045.5360143388821
 21
3252.1305085760309
 31
0.0
  0
LINE
  5
5D6C
  8
0
 62
     7
 10
991.53601433888161
 20
3252.1305085760282
 30
0.0
 11
991.53601433888161
 21
2069.1305085760282
 31
0.0
  0
LINE
  5
5D6D
  8
0
 62
     7
 10
2103.5360143388798
 20
3209.1305085760268
 30
0.0
 11
2103.5360143388798
 21
2147.1305085760282
 31
0.0
  0
LINE
  5
5D6E
  8
0
  6
PHANTOM2
 62
     7
 10
3692.6622255650391
 20
3061.6667229141199
 30
0.0
 11
2509.6622255650391
 21
3061.6667229141199
 31
0.0
  0
TEXT
  5
5D6F
  8
0
 62
     7
 10
2741.8783973617892
 20
2977.1721726390501
 30
0.0
 40
40.0
  1
2000 min CLEARANCE
  7
TITLE3
  0
LINE
  5
5D72
  8
0
  6
PHANTOM2
 62
     7
 10
3692.6622255650391
 20
1195.6788335733961
 30
0.0
 11
3692.6622255650391
 21
3061.6667229141199
 31
0.0
  0
LINE
  5
5D73
  8
0
  6
PHANTOM2
 62
     7
 10
2509.6622255650391
 20
1195.7429622375689
 30
0.0
 11
2509.6622255650391
 21
3061.6667229141199
 31
0.0
  0
LINE
  5
5D74
  8
0
 62
     7
 10
1921.113492487211
 20
925.97908494763033
 30
0.0
 11
1976.613492487211
 21
925.97908494763033
 31
0.0
  0
LINE
  5
5D75
  8
0
 62
     7
 10
1921.113492487211
 20
896.57908494762967
 30
0.0
 11
1976.613492487211
 21
896.57908494762967
 31
0.0
  0
LINE
  5
5D76
  8
0
 62
     7
 10
1921.113492487211
 20
925.97908494763033
 30
0.0
 11
1921.113492487211
 21
896.57908494762967
 31
0.0
  0
LINE
  5
5D77
  8
0
 62
     7
 10
1976.613492487211
 20
871.97908494763044
 30
0.0
 11
2015.9134924872119
 21
911.27908494762971
 31
0.0
  0
LINE
  5
5D78
  8
0
 62
     7
 10
1976.613492487211
 20
925.97908494763033
 30
0.0
 11
1976.613492487211
 21
950.57908494762955
 31
0.0
  0
LINE
  5
5D79
  8
0
 62
     7
 10
1976.613492487211
 20
950.57908494762955
 30
0.0
 11
2015.9134924872119
 21
911.27908494762971
 31
0.0
  0
LINE
  5
5D7A
  8
0
 62
     7
 10
1976.613492487211
 20
896.57908494762967
 30
0.0
 11
1976.613492487211
 21
871.97908494763044
 31
0.0
  0
LINE
  5
5D7B
  8
0
 62
     7
 10
1960.4134924872101
 20
478.35881933378818
 30
0.0
 11
1921.113492487211
 21
517.65881933378841
 31
0.0
  0
LINE
  5
5D7C
  8
0
 62
     7
 10
1960.4134924872101
 20
502.95881933378757
 30
0.0
 11
1960.4134924872101
 21
478.35881933378818
 31
0.0
  0
LINE
  5
5D7D
  8
0
 62
     7
 10
2015.913492487211
 20
532.35881933378789
 30
0.0
 11
1960.4134924872101
 21
532.35881933378789
 31
0.0
  0
LINE
  5
5D7E
  8
0
 62
     7
 10
2015.913492487211
 20
502.95881933378757
 30
0.0
 11
1960.4134924872101
 21
502.95881933378757
 31
0.0
  0
LINE
  5
5D7F
  8
0
 62
     7
 10
2015.913492487211
 20
502.95881933378757
 30
0.0
 11
2015.913492487211
 21
532.35881933378789
 31
0.0
  0
LINE
  5
5D80
  8
0
 62
     7
 10
1960.4134924872101
 20
532.35881933378789
 30
0.0
 11
1960.4134924872101
 21
556.95881933378746
 31
0.0
  0
LINE
  5
5D81
  8
0
 62
     7
 10
1960.4134924872101
 20
556.95881933378746
 30
0.0
 11
1921.113492487211
 21
517.65881933378841
 31
0.0
  0
TEXT
  5
5F1D
  8
0
 62
     7
 10
4651.6793143303848
 20
590.04887497894515
 30
0.0
 40
24.0
  1
available on request
  7
TITLE3
  0
TEXT
  5
5F1E
  8
0
 62
     7
 10
4651.6793143303848
 20
631.19173212180226
 30
0.0
 40
24.0
  1
Certified dimensions
  7
TITLE3
  0
TEXT
  5
5F1F
  8
0
 62
     7
 10
4651.6793143303848
 20
672.33458926465937
 30
0.0
 40
24.0
  1
without notice or obligation.
  7
TITLE3
  0
TEXT
  5
5F20
  8
0
 62
     7
 10
4651.6793143303848
 20
713.47744640751648
 30
0.0
 40
24.0
  1
specifications at any time
  7
TITLE3
  0
TEXT
  5
5F21
  8
0
 62
     7
 10
4651.6793143303848
 20
754.62030355037371
 30
0.0
 40
24.0
  1
the right to change 
  7
TITLE3
  0
TEXT
  5
5F22
  8
0
 62
     7
 10
4651.6793143303848
 20
836.90601783608793
 30
0.0
 40
24.0
  1
NOTE
  7
TITLE3
  0
TEXT
  5
5F23
  8
0
 62
     7
 10
4651.6793143303848
 20
795.7631606932307
 30
0.0
 40
24.0
  1
The manufacturer reserves
  7
TITLE3
  0
CIRCLE
  5
5F71
  8
0
 62
     7
 10
1370.53601433888
 20
2784.1305085760291
 30
0.0
 40
285.0
  0
LINE
  5
5F72
  8
0
 62
     7
 10
1085.5360143388809
 20
1168.663820838374
 30
0.0
 11
1085.5360143388809
 21
1061.6667229141181
 31
0.0
  0
LINE
  5
5F73
  8
0
 62
     7
 10
1655.5360143388809
 20
1168.663820838374
 30
0.0
 11
1655.5360143388809
 21
1061.6667229141181
 31
0.0
  0
LINE
  5
5F74
  8
0
 62
     7
 10
1121.5360143388821
 20
2060.1305085760282
 30
0.0
 11
1240.5360143388821
 21
2060.1305085760282
 31
0.0
  0
LINE
  5
5F76
  8
0
 62
     7
 10
1121.5360143388821
 20
3260.1305085760282
 30
0.0
 11
1121.5360143388821
 21
3252.1305085760282
 31
0.0
  0
LINE
  5
5F77
  8
0
 62
     7
 10
1240.5360143388821
 20
3260.1305085760282
 30
0.0
 11
1240.5360143388821
 21
3252.1305085760282
 31
0.0
  0
LINE
  5
5F79
  8
0
 62
     7
 10
1796.5360143388821
 20
3260.1305085760291
 30
0.0
 11
1796.5360143388821
 21
3252.1305085760309
 31
0.0
  0
LINE
  5
5F7A
  8
0
 62
     7
 10
1915.5360143388821
 20
3260.1305085760291
 30
0.0
 11
1915.5360143388821
 21
3252.1305085760309
 31
0.0
  0
LINE
  5
5F7B
  8
0
 62
     7
 10
1796.5360143388821
 20
2060.1305085760282
 30
0.0
 11
1915.5360143388821
 21
2060.1305085760282
 31
0.0
  0
LINE
  5
5F7C
  8
0
 62
     7
 10
1121.5360143388821
 20
3260.1305085760282
 30
0.0
 11
1240.5360143388821
 21
3260.1305085760282
 31
0.0
  0
LINE
  5
5F7D
  8
0
 62
     7
 10
1796.5360143388821
 20
3260.1305085760291
 30
0.0
 11
1915.5360143388821
 21
3260.1305085760291
 31
0.0
  0
LINE
  5
5F7E
  8
0
 62
     7
 10
1915.5360143388821
 20
2069.1305085760291
 30
0.0
 11
1915.5360143388821
 21
2060.1305085760282
 31
0.0
  0
LINE
  5
5F7F
  8
0
 62
     7
 10
1796.5360143388821
 20
2069.1305085760291
 30
0.0
 11
1796.5360143388821
 21
2060.1305085760282
 31
0.0
  0
LINE
  5
5F80
  8
0
 62
     7
 10
1240.5360143388821
 20
2069.1305085760282
 30
0.0
 11
1240.5360143388821
 21
2060.1305085760282
 31
0.0
  0
LINE
  5
5F81
  8
0
 62
     7
 10
1121.53601433888
 20
2069.1305085760291
 30
0.0
 11
1121.5360143388821
 21
2060.1305085760282
 31
0.0
  0
LINE
  5
5F95
  8
0
  6
PHANTOM2
 62
     7
 10
990.92545630160907
 20
2023.409551263052
 30
0.0
 11
990.92545630160907
 21
1569.130508576028
 31
0.0
  0
LINE
  5
5F96
  8
0
 62
     7
 10
1121.5360143388821
 20
258.66382083837402
 30
0.0
 11
1240.5360143388821
 21
258.66382083837402
 31
0.0
  0
LINE
  5
5F97
  8
0
 62
     7
 10
1796.5360143388821
 20
258.66382083837402
 30
0.0
 11
1915.5360143388821
 21
258.66382083837402
 31
0.0
  0
LINE
  5
5F98
  8
0
 62
     7
 10
1915.5360143388821
 20
290.66382083837402
 30
0.0
 11
1915.5360143388821
 21
258.66382083837402
 31
0.0
  0
LINE
  5
5F99
  8
0
 62
     7
 10
1796.5360143388821
 20
290.66382083837402
 30
0.0
 11
1796.5360143388821
 21
258.66382083837402
 31
0.0
  0
LINE
  5
5F9A
  8
0
 62
     7
 10
1240.5360143388821
 20
290.66382083837402
 30
0.0
 11
1240.5360143388821
 21
258.66382083837402
 31
0.0
  0
LINE
  5
5F9B
  8
0
 62
     7
 10
1121.53601433888
 20
290.66382083837402
 30
0.0
 11
1121.5360143388821
 21
258.66382083837402
 31
0.0
  0
LINE
  5
5FB0
  8
0
 62
     7
 10
1181.0360143388821
 20
248.66382083837399
 30
0.0
 11
1181.0360143388821
 21
268.66382083837391
 31
0.0
  0
LINE
  5
5FB3
  8
0
 62
     7
 10
1856.0360143388821
 20
248.66382083837399
 30
0.0
 11
1856.0360143388821
 21
268.66382083837391
 31
0.0
  0
LINE
  5
5FE3
  8
0
 62
     7
 10
2509.6622255650391
 20
1061.666722914119
 30
0.0
 11
3692.6622255650391
 21
1061.666722914119
 31
0.0
  0
LINE
  5
5FE6
  8
0
 62
     7
 10
2509.6622255650391
 20
1061.666722914119
 30
0.0
 11
2509.6622255650391
 21
290.66382083837402
 31
0.0
  0
LINE
  5
5FE7
  8
0
 62
     7
 10
3692.6622255650391
 20
1061.666722914119
 30
0.0
 11
3692.6622255650391
 21
290.66382083837402
 31
0.0
  0
LINE
  5
5FE8
  8
0
 62
     7
 10
2500.6622255650391
 20
290.66382083837402
 30
0.0
 11
3700.6622255650359
 21
290.66382083837402
 31
0.0
  0
LINE
  5
5FE9
  8
0
 62
     7
 10
2500.6622255650391
 20
290.66382083837402
 30
0.0
 11
2500.6622255650391
 21
258.66382083837402
 31
0.0
  0
LINE
  5
5FEA
  8
0
 62
     7
 10
3700.6622255650359
 20
290.66382083837402
 30
0.0
 11
3700.6622255650382
 21
258.66382083837408
 31
0.0
  0
LINE
  5
5FEB
  8
0
 62
     7
 10
2500.6622255650391
 20
258.66382083837402
 30
0.0
 11
3700.6622255650382
 21
258.66382083837408
 31
0.0
  0
LINE
  5
5FEC
  8
0
 62
     7
 10
2520.1622255650391
 20
268.66382083837391
 30
0.0
 11
2520.1622255650391
 21
248.66382083837399
 31
0.0
  0
LINE
  5
6185
  8
0
  6
HIDDEN2
 62
     7
 10
1071.340777383748
 20
2952.2694502124168
 30
0.0
 11
1071.340777383748
 21
2427.2694502124209
 31
0.0
  0
LINE
  5
6186
  8
0
  6
HIDDEN2
 62
     7
 10
1016.340777383748
 20
2952.2694502124168
 30
0.0
 11
1016.340777383748
 21
2427.2694502124168
 31
0.0
  0
ARC
  5
6187
  8
0
  6
HIDDEN2
 62
     7
 10
1271.3407773837471
 20
2952.2694502124159
 30
0.0
 40
255.0
 50
90.0
 51
180.0
  0
ARC
  5
6188
  8
0
  6
HIDDEN2
 62
     7
 10
1271.3407773837471
 20
2952.2694502124159
 30
0.0
 40
200.0
 50
90.0
 51
180.0
  0
LINE
  5
6189
  8
0
  6
HIDDEN2
 62
     7
 10
1581.3407773837471
 20
3152.2694502124168
 30
0.0
 11
1271.3407773837489
 21
3152.2694502124168
 31
0.0
  0
LINE
  5
618A
  8
0
  6
HIDDEN2
 62
     7
 10
1271.3407773837489
 20
3207.2694502124191
 30
0.0
 11
1582.5407773837489
 21
3207.2694502124191
 31
0.0
  0
LINE
  5
618B
  8
0
  6
HIDDEN2
 62
     7
 10
1582.540777383746
 20
3152.2694502124168
 30
0.0
 11
1582.5407773837489
 21
3207.2694502124191
 31
0.0
  0
LINE
  5
618C
  8
0
  6
HIDDEN
 62
     7
 10
1582.540777383746
 20
3152.2694502124168
 30
0.0
 11
1581.3407773837471
 21
3152.2694502124168
 31
0.0
  0
LINE
  5
618D
  8
0
  6
HIDDEN
 62
     7
 10
1043.8407773837509
 20
2427.2694502124168
 30
0.0
 11
1016.340777383748
 21
2427.2694502124168
 31
0.0
  0
LINE
  5
618E
  8
0
  6
HIDDEN2
 62
     7
 10
1072.540777383751
 20
2427.2694502124168
 30
0.0
 11
1040.340777383748
 21
2427.2694502124168
 31
0.0
  0
TEXT
  5
61A9
  8
0
 62
     7
 10
2880.7550545914119
 20
487.97669560598791
 30
0.0
 40
62.999999998424997
  1
OPA135RKTH
  7
TITLE5
 72
     1
 11
3173.2550545840991
 21
487.97669560598791
 31
0.0
  0
LINE
  5
6409
  8
0
 62
     7
 10
2500.6622255650391
 20
317.33048750504082
 30
0.0
 11
2500.6622255650391
 21
358.77905356261482
 31
0.0
  0
LINE
  5
640A
  8
0
 62
     7
 10
2509.6622255650391
 20
317.33048750504082
 30
0.0
 11
2509.6622255650391
 21
358.77905356261482
 31
0.0
  0
LINE
  5
640B
  8
0
 62
     7
 10
2460.66222556504
 20
332.11238689594791
 30
0.0
 11
2420.6622255650391
 21
332.11238689594791
 31
0.0
  0
LINE
  5
640C
  8
0
 62
     7
 10
2549.6622255650391
 20
332.11238689594791
 30
0.0
 11
2589.6622255650391
 21
332.11238689594791
 31
0.0
  0
SOLID
  5
640D
  8
0
 62
     7
 10
2460.66222556504
 20
338.77905356261482
 30
0.0
 11
2460.66222556504
 21
325.44572022928122
 31
0.0
 12
2500.6622255650391
 22
332.11238689594791
 32
0.0
 13
2500.6622255650391
 23
332.11238689594791
 33
0.0
  0
SOLID
  5
640E
  8
0
 62
     7
 10
2549.6622255650391
 20
338.77905356261482
 30
0.0
 11
2549.6622255650391
 21
325.44572022928122
 31
0.0
 12
2509.6622255650391
 22
332.11238689594791
 32
0.0
 13
2509.6622255650391
 23
332.11238689594791
 33
0.0
  0
TEXT
  5
6460
  8
0
 62
     7
 10
2386.4539540879541
 20
317.11238689594802
 30
0.0
 40
30.0
  1
9
  0
LINE
  5
649F
  8
0
 62
     7
 10
2045.5322123372939
 20
364.66382083837402
 30
0.0
 11
2103.472212337294
 21
364.66382083837402
 31
0.0
  0
LINE
  5
64A3
  8
0
 62
     7
 10
2045.532212337293
 20
647.66382083837391
 30
0.0
 11
2103.4722123372931
 21
647.66382083837414
 31
0.0
  0
LINE
  5
64A4
  8
0
 62
     7
 10
2045.532212337293
 20
784.66382083837414
 30
0.0
 11
2103.5393400537459
 21
784.66382083837414
 31
0.0
  0
LINE
  5
64A5
  8
0
 62
     7
 10
2045.532212337293
 20
1009.663820838374
 30
0.0
 11
2103.5393400537459
 21
1009.663820838374
 31
0.0
  0
LINE
  5
64A9
  8
0
 62
     7
 10
3692.6622255650391
 20
1061.666722914119
 30
0.0
 11
3692.6622255650391
 21
290.66382083837402
 31
0.0
  0
LINE
  5
64AA
  8
0
 62
     7
 10
2587.6622255650382
 20
647.66382083837391
 30
0.0
 11
2587.6622255650382
 21
364.66382083837402
 31
0.0
  0
LINE
  5
64AC
  8
0
 62
     7
 10
2671.6622255650391
 20
1009.663820838374
 30
0.0
 11
2671.6622255650391
 21
784.66382083837414
 31
0.0
  0
LINE
  5
64AD
  8
0
 62
     7
 10
3692.6622255650391
 20
1061.666722914119
 30
0.0
 11
3692.6622255650391
 21
290.66382083837402
 31
0.0
  0
LINE
  5
64AE
  8
0
 62
     7
 10
3531.6622255650391
 20
1009.663820838374
 30
0.0
 11
3531.6622255650391
 21
784.66382083837391
 31
0.0
  0
LINE
  5
64AF
  8
0
 62
     7
 10
3649.66222556504
 20
647.66382083837368
 30
0.0
 11
3649.66222556504
 21
364.66382083837402
 31
0.0
  0
LINE
  5
64B0
  8
0
 62
     7
 10
2587.6622255650382
 20
364.66382083837402
 30
0.0
 11
3649.66222556504
 21
364.66382083837402
 31
0.0
  0
LINE
  5
64B1
  8
0
 62
     7
 10
2587.6622255650382
 20
647.66382083837391
 30
0.0
 11
3649.66222556504
 21
647.66382083837368
 31
0.0
  0
LINE
  5
64B2
  8
0
 62
     7
 10
2671.6622255650391
 20
784.66382083837414
 30
0.0
 11
3531.6622255650391
 21
784.66382083837391
 31
0.0
  0
LINE
  5
64B3
  8
0
 62
     7
 10
2671.6622255650391
 20
1009.663820838374
 30
0.0
 11
3531.6622255650391
 21
1009.663820838374
 31
0.0
  0
LINE
  5
64B8
  8
0
 62
     7
 10
2045.5360143388821
 20
2147.1305085760282
 30
0.0
 11
2103.5360143388798
 21
2147.1305085760282
 31
0.0
  0
LINE
  5
64B9
  8
0
 62
     7
 10
2045.5360143388821
 20
3209.1305085760268
 30
0.0
 11
2103.5360143388798
 21
3209.1305085760268
 31
0.0
  0
LINE
  5
64BA
  8
0
 62
     7
 10
2045.5360143388821
 20
2231.1305085760282
 30
0.0
 11
2103.5360143388798
 21
2231.1305085760282
 31
0.0
  0
LINE
  5
64BB
  8
0
 62
     7
 10
2045.5360143388821
 20
3091.1305085760291
 30
0.0
 11
2103.5360143388798
 21
3091.1305085760291
 31
0.0
  0
LINE
  5
64DE
  8
0
 62
     7
 10
991.53601433888161
 20
263.99715417170728
 30
0.0
 11
991.53601433888161
 21
158.72148405513761
 31
0.0
  0
LINE
  5
64DF
  8
0
 62
     7
 10
1181.0360143388821
 20
221.99715417170731
 30
0.0
 11
1181.0360143388821
 21
158.72148405513761
 31
0.0
  0
LINE
  5
64E0
  8
0
 62
     7
 10
951.53601433888161
 20
185.38815072180429
 30
0.0
 11
911.53601433888184
 21
185.38815072180429
 31
0.0
  0
LINE
  5
64E1
  8
0
 62
     7
 10
1221.0360143388821
 20
185.38815072180429
 30
0.0
 11
1261.0360143388821
 21
185.38815072180429
 31
0.0
  0
SOLID
  5
64E2
  8
0
 62
     7
 10
951.53601433888161
 20
192.05481738847101
 30
0.0
 11
951.53601433888161
 21
178.72148405513761
 31
0.0
 12
991.53601433888161
 22
185.38815072180429
 32
0.0
 13
991.53601433888161
 23
185.38815072180429
 33
0.0
  0
SOLID
  5
64E3
  8
0
 62
     7
 10
1221.0360143388821
 20
192.05481738847101
 30
0.0
 11
1221.0360143388821
 21
178.72148405513761
 31
0.0
 12
1181.0360143388821
 22
185.38815072180429
 32
0.0
 13
1181.0360143388821
 23
185.38815072180429
 33
0.0
  0
LINE
  5
64E5
  8
0
 62
     7
 10
1181.0360143388821
 20
221.99715417170731
 30
0.0
 11
1181.0360143388821
 21
159.91683601197269
 31
0.0
  0
LINE
  5
64E6
  8
0
 62
     7
 10
1856.0360143388821
 20
221.99715417170731
 30
0.0
 11
1856.0360143388821
 21
159.91683601197269
 31
0.0
  0
LINE
  5
64E7
  8
0
 62
     7
 10
1221.0360143388821
 20
186.58350267863941
 30
0.0
 11
1451.8693476722151
 21
186.58350267863941
 31
0.0
  0
LINE
  5
64E8
  8
0
 62
     7
 10
1816.0360143388821
 20
186.58350267863941
 30
0.0
 11
1585.202681005549
 21
186.58350267863941
 31
0.0
  0
SOLID
  5
64E9
  8
0
 62
     7
 10
1221.0360143388821
 20
193.25016934530609
 30
0.0
 11
1221.0360143388821
 21
179.91683601197269
 31
0.0
 12
1181.0360143388821
 22
186.58350267863941
 32
0.0
 13
1181.0360143388821
 23
186.58350267863941
 33
0.0
  0
SOLID
  5
64EA
  8
0
 62
     7
 10
1816.0360143388821
 20
193.25016934530609
 30
0.0
 11
1816.0360143388821
 21
179.91683601197269
 31
0.0
 12
1856.0360143388821
 22
186.58350267863941
 32
0.0
 13
1856.0360143388821
 23
186.58350267863941
 33
0.0
  0
LINE
  5
64EC
  8
0
 62
     7
 10
1070.604175775368
 20
1168.663820838374
 30
0.0
 11
875.47159605705747
 21
1168.663820838374
 31
0.0
  0
LINE
  5
64ED
  8
0
 62
     7
 10
1094.8693476722151
 20
258.66382083837402
 30
0.0
 11
875.47159605705735
 21
258.66382083837402
 31
0.0
  0
LINE
  5
64EE
  8
0
 62
     7
 10
902.13826272372398
 20
1128.663820838374
 30
0.0
 11
902.13826272372398
 21
808.18781252648864
 31
0.0
  0
LINE
  5
64EF
  8
0
 62
     7
 10
902.13826272372398
 20
298.66382083837402
 30
0.0
 11
902.13826272372398
 21
608.18781252648864
 31
0.0
  0
SOLID
  5
64F0
  8
0
 62
     7
 10
895.47159605705724
 20
1128.663820838374
 30
0.0
 11
908.80492939039073
 21
1128.663820838374
 31
0.0
 12
902.13826272372398
 22
1168.663820838374
 32
0.0
 13
902.13826272372398
 23
1168.663820838374
 33
0.0
  0
SOLID
  5
64F1
  8
0
 62
     7
 10
895.47159605705724
 20
298.66382083837402
 30
0.0
 11
908.80492939039027
 21
298.66382083837402
 31
0.0
 12
902.13826272372398
 22
258.66382083837402
 32
0.0
 13
902.13826272372398
 23
258.66382083837402
 33
0.0
  0
LINE
  5
64F3
  8
0
 62
     7
 10
991.53601433888161
 20
1138.3333895807839
 30
0.0
 11
991.53601433888161
 21
1309.6248301479559
 31
0.0
  0
LINE
  5
64F4
  8
0
 62
     7
 10
2103.5393400537459
 20
1036.330487505041
 30
0.0
 11
2103.5393400537459
 21
1309.6248301479559
 31
0.0
  0
LINE
  5
64F5
  8
0
 62
     7
 10
1031.5360143388821
 20
1282.9581634812901
 30
0.0
 11
1437.537677196314
 21
1282.9581634812901
 31
0.0
  0
LINE
  5
64F6
  8
0
 62
     7
 10
2063.5393400537459
 20
1282.9581634812901
 30
0.0
 11
1657.537677196314
 21
1282.9581634812901
 31
0.0
  0
SOLID
  5
64F7
  8
0
 62
     7
 10
1031.5360143388821
 20
1289.6248301479559
 30
0.0
 11
1031.5360143388821
 21
1276.2914968146231
 31
0.0
 12
991.53601433888161
 22
1282.9581634812901
 32
0.0
 13
991.53601433888161
 23
1282.9581634812901
 33
0.0
  0
SOLID
  5
64F8
  8
0
 62
     7
 10
2063.5393400537459
 20
1289.6248301479559
 30
0.0
 11
2063.5393400537459
 21
1276.2914968146231
 31
0.0
 12
2103.5393400537459
 22
1282.9581634812901
 32
0.0
 13
2103.5393400537459
 23
1282.9581634812901
 33
0.0
  0
LINE
  5
64FA
  8
0
 62
     7
 10
991.53601433888161
 20
1076.8503349918581
 30
0.0
 11
991.53601433888161
 21
1247.038660979041
 31
0.0
  0
LINE
  5
64FB
  8
0
 62
     7
 10
2045.5322123372921
 20
1076.8503349918581
 30
0.0
 11
2045.5322123372921
 21
1247.038660979041
 31
0.0
  0
LINE
  5
64FC
  8
0
 62
     7
 10
1031.5360143388821
 20
1220.371994312374
 30
0.0
 11
1444.3674466714201
 21
1220.371994312374
 31
0.0
  0
LINE
  5
64FD
  8
0
 62
     7
 10
2005.5322123372921
 20
1220.371994312374
 30
0.0
 11
1592.7007800047541
 21
1220.371994312374
 31
0.0
  0
SOLID
  5
64FE
  8
0
 62
     7
 10
1031.5360143388821
 20
1227.038660979041
 30
0.0
 11
1031.5360143388821
 21
1213.7053276457079
 31
0.0
 12
991.53601433888161
 22
1220.371994312374
 32
0.0
 13
991.53601433888161
 23
1220.371994312374
 33
0.0
  0
SOLID
  5
64FF
  8
0
 62
     7
 10
2005.5322123372921
 20
1227.038660979041
 30
0.0
 11
2005.5322123372921
 21
1213.7053276457079
 31
0.0
 12
2045.5322123372921
 22
1220.371994312374
 32
0.0
 13
2045.5322123372921
 23
1220.371994312374
 33
0.0
  0
LINE
  5
6501
  8
0
 62
     7
 10
2130.1388790039609
 20
364.66382083837402
 30
0.0
 11
2218.3674516293131
 21
364.66382083837402
 31
0.0
  0
LINE
  5
6502
  8
0
 62
     7
 10
1942.202681005549
 20
258.66382083837391
 30
0.0
 11
2218.3674516293131
 21
258.66382083837379
 31
0.0
  0
LINE
  5
6503
  8
0
 62
     7
 10
2191.7007849626461
 20
404.66382083837391
 30
0.0
 11
2191.7007849626461
 21
444.66382083837391
 31
0.0
  0
LINE
  5
6504
  8
0
 62
     7
 10
2191.7007849626461
 20
218.66382083837391
 30
0.0
 11
2191.7007849626461
 21
178.66382083837391
 31
0.0
  0
SOLID
  5
6505
  8
0
 62
     7
 10
2185.0341182959801
 20
404.66382083837391
 30
0.0
 11
2198.3674516293131
 21
404.66382083837391
 31
0.0
 12
2191.7007849626461
 22
364.66382083837402
 32
0.0
 13
2191.7007849626461
 23
364.66382083837402
 33
0.0
  0
SOLID
  5
6506
  8
0
 62
     7
 10
2185.0341182959801
 20
218.66382083837391
 30
0.0
 11
2198.3674516293131
 21
218.66382083837391
 31
0.0
 12
2191.7007849626461
 22
258.66382083837379
 32
0.0
 13
2191.7007849626461
 23
258.66382083837379
 33
0.0
  0
LINE
  5
6508
  8
0
 62
     7
 10
2130.1388790039591
 20
647.66382083837391
 30
0.0
 11
2218.489916316817
 21
647.66382083837391
 31
0.0
  0
LINE
  5
6509
  8
0
 62
     7
 10
2130.1388790039609
 20
364.66382083837402
 30
0.0
 11
2218.489916316817
 21
364.66382083837402
 31
0.0
  0
LINE
  5
650A
  8
0
 62
     7
 10
2191.82324965015
 20
607.66382083837402
 30
0.0
 11
2191.82324965015
 21
572.83048750504065
 31
0.0
  0
LINE
  5
650B
  8
0
 62
     7
 10
2191.82324965015
 20
404.66382083837391
 30
0.0
 11
2191.82324965015
 21
439.49715417170722
 31
0.0
  0
SOLID
  5
650C
  8
0
 62
     7
 10
2185.156582983484
 20
607.66382083837402
 30
0.0
 11
2198.489916316817
 21
607.66382083837402
 31
0.0
 12
2191.82324965015
 22
647.66382083837391
 32
0.0
 13
2191.82324965015
 23
647.66382083837391
 33
0.0
  0
SOLID
  5
650D
  8
0
 62
     7
 10
2185.156582983484
 20
404.66382083837391
 30
0.0
 11
2198.489916316817
 21
404.66382083837391
 31
0.0
 12
2191.82324965015
 22
364.66382083837402
 32
0.0
 13
2191.82324965015
 23
364.66382083837402
 33
0.0
  0
LINE
  5
650F
  8
0
 62
     7
 10
2130.206006720412
 20
1009.663820838374
 30
0.0
 11
2218.498262102798
 21
1009.663820838374
 31
0.0
  0
LINE
  5
6510
  8
0
 62
     7
 10
2130.206006720412
 20
784.66382083837414
 30
0.0
 11
2218.498262102798
 21
784.66382083837414
 31
0.0
  0
LINE
  5
6511
  8
0
 62
     7
 10
2191.8315954361319
 20
969.66382083837425
 30
0.0
 11
2191.8315954361319
 21
948.53646251045302
 31
0.0
  0
SOLID
  5
6513
  8
0
 62
     7
 10
2185.1649287694659
 20
969.66382083837425
 30
0.0
 11
2198.498262102798
 21
969.66382083837425
 31
0.0
 12
2191.8315954361319
 22
1009.663820838374
 32
0.0
 13
2191.8315954361319
 23
1009.663820838374
 33
0.0
  0
SOLID
  5
6514
  8
0
 62
     7
 10
2185.1649287694659
 20
824.66382083837391
 30
0.0
 11
2198.498262102798
 21
824.66382083837391
 31
0.0
 12
2191.8315954361319
 22
784.66382083837414
 32
0.0
 13
2191.8315954361319
 23
784.66382083837414
 33
0.0
  0
LINE
  5
6517
  8
0
 62
     7
 10
2191.8315954361319
 20
848.53646251045245
 30
0.0
 11
2191.8315954361319
 21
824.66382083837391
 31
0.0
  0
LINE
  5
654C
  8
0
 62
     7
 10
2520.1622255650391
 20
221.99715417170731
 30
0.0
 11
2520.1622255650391
 21
172.62667090995529
 31
0.0
  0
LINE
  5
654D
  8
0
 62
     7
 10
2500.6622255650391
 20
231.99715417170731
 30
0.0
 11
2500.6622255650391
 21
172.62667090995529
 31
0.0
  0
LINE
  5
654F
  8
0
 62
     7
 10
2460.66222556504
 20
199.29333757662181
 30
0.0
 11
2420.6622255650391
 21
199.29333757662181
 31
0.0
  0
SOLID
  5
6551
  8
0
 62
     7
 10
2460.66222556504
 20
205.96000424328861
 30
0.0
 11
2460.66222556504
 21
192.62667090995529
 31
0.0
 12
2500.6622255650391
 22
199.29333757662181
 32
0.0
 13
2500.6622255650391
 23
199.29333757662181
 33
0.0
  0
LINE
  5
6553
  8
0
 62
     7
 10
2520.1622255650391
 20
221.99715417170731
 30
0.0
 11
2520.1622255650391
 21
173.25548097241321
 31
0.0
  0
LINE
  5
6554
  8
0
 62
     7
 10
3674.1622255650391
 20
221.99715417170731
 30
0.0
 11
3674.1622255650391
 21
173.25548097241321
 31
0.0
  0
LINE
  5
6555
  8
0
 62
     7
 10
2548.6622255650391
 20
199.92214763907981
 30
0.0
 11
2954.4955588983712
 21
199.92214763907981
 31
0.0
  0
LINE
  5
6556
  8
0
 62
     7
 10
3653.6622255650391
 20
199.92214763907981
 30
0.0
 11
3247.8288922317038
 21
199.92214763907981
 31
0.0
  0
SOLID
  5
6557
  8
0
 62
     7
 10
2560.1622255650391
 20
206.5888143057465
 30
0.0
 11
2560.1622255650391
 21
193.25548097241321
 31
0.0
 12
2520.1622255650391
 22
199.92214763907981
 32
0.0
 13
2520.1622255650391
 23
199.92214763907981
 33
0.0
  0
SOLID
  5
6558
  8
0
 62
     7
 10
3634.16222556504
 20
206.5888143057465
 30
0.0
 11
3634.16222556504
 21
193.25548097241321
 31
0.0
 12
3674.1622255650391
 22
199.92214763907981
 32
0.0
 13
3674.1622255650391
 23
199.92214763907981
 33
0.0
  0
LINE
  5
655A
  8
0
 62
     7
 10
2500.6622255650391
 20
231.99715417170731
 30
0.0
 11
2500.6622255650391
 21
109.5947413583052
 31
0.0
  0
LINE
  5
655B
  8
0
 62
     7
 10
3700.6622255650382
 20
231.99715417170739
 30
0.0
 11
3700.6622255650382
 21
109.5947413583052
 31
0.0
  0
LINE
  5
655C
  8
0
 62
     7
 10
2540.6622255650391
 20
136.26140802497179
 30
0.0
 11
2968.9955588983712
 21
136.26140802497179
 31
0.0
  0
LINE
  5
655D
  8
0
 62
     7
 10
3660.6622255650391
 20
136.26140802497179
 30
0.0
 11
3232.3288922317038
 21
136.26140802497179
 31
0.0
  0
SOLID
  5
655E
  8
0
 62
     7
 10
2540.6622255650391
 20
142.9280746916385
 30
0.0
 11
2540.6622255650391
 21
129.59474135830521
 31
0.0
 12
2500.6622255650391
 22
136.26140802497179
 32
0.0
 13
2500.6622255650391
 23
136.26140802497179
 33
0.0
  0
SOLID
  5
655F
  8
0
 62
     7
 10
3660.6622255650391
 20
142.9280746916385
 30
0.0
 11
3660.6622255650391
 21
129.59474135830521
 31
0.0
 12
3700.6622255650382
 22
136.26140802497179
 32
0.0
 13
3700.6622255650382
 23
136.26140802497179
 33
0.0
  0
LINE
  5
6561
  8
0
 62
     7
 10
2587.6622255650382
 20
674.33048750504054
 30
0.0
 11
2587.6622255650382
 21
1246.5406585241331
 31
0.0
  0
LINE
  5
6562
  8
0
 62
     7
 10
2509.6622255650391
 20
1190.9233895807849
 30
0.0
 11
2509.6622255650391
 21
1249.1306585241321
 31
0.0
  0
LINE
  5
6564
  8
0
 62
     7
 10
2469.66222556504
 20
1222.463991857466
 30
0.0
 11
2429.6622255650391
 21
1222.463991857466
 31
0.0
  0
SOLID
  5
6566
  8
0
 62
     7
 10
2469.66222556504
 20
1229.1306585241321
 30
0.0
 11
2469.66222556504
 21
1215.797325190799
 31
0.0
 12
2509.6622255650391
 22
1222.463991857466
 32
0.0
 13
2509.6622255650391
 23
1222.463991857466
 33
0.0
  0
LINE
  5
6568
  8
0
 62
     7
 10
2587.6622255650382
 20
674.33048750504054
 30
0.0
 11
2587.6622255650382
 21
1249.127153118261
 31
0.0
  0
LINE
  5
6569
  8
0
 62
     7
 10
3649.66222556504
 20
674.3304875050402
 30
0.0
 11
3649.66222556504
 21
1249.127153118261
 31
0.0
  0
LINE
  5
656A
  8
0
 62
     7
 10
2627.6622255650391
 20
1222.4604864515941
 30
0.0
 11
3044.4955588983721
 21
1222.4604864515941
 31
0.0
  0
LINE
  5
656B
  8
0
 62
     7
 10
3609.66222556504
 20
1222.4604864515941
 30
0.0
 11
3192.8288922317051
 21
1222.4604864515941
 31
0.0
  0
SOLID
  5
656C
  8
0
 62
     7
 10
2627.6622255650391
 20
1229.127153118261
 30
0.0
 11
2627.6622255650391
 21
1215.7938197849271
 31
0.0
 12
2587.6622255650382
 22
1222.4604864515941
 32
0.0
 13
2587.6622255650382
 23
1222.4604864515941
 33
0.0
  0
SOLID
  5
656D
  8
0
 62
     7
 10
3609.66222556504
 20
1229.127153118261
 30
0.0
 11
3609.66222556504
 21
1215.7938197849271
 31
0.0
 12
3649.66222556504
 22
1222.4604864515941
 32
0.0
 13
3649.66222556504
 23
1222.4604864515941
 33
0.0
  0
LINE
  5
65B7
  8
0
 62
     7
 10
2671.6622255650391
 20
1036.330487505041
 30
0.0
 11
2671.6622255650391
 21
1310.2877035338749
 31
0.0
  0
LINE
  5
65B8
  8
0
 62
     7
 10
2509.6622255650391
 20
1138.333389580785
 30
0.0
 11
2509.6622255650391
 21
1310.2877035338749
 31
0.0
  0
LINE
  5
65B9
  8
0
 62
     7
 10
2631.6622255650391
 20
1283.621036867208
 30
0.0
 11
2549.6622255650391
 21
1283.621036867208
 31
0.0
  0
LINE
  5
65BA
  8
0
 62
     7
 10
2509.6622255650391
 20
1283.621036867208
 30
0.0
 11
2469.66222556504
 21
1283.621036867208
 31
0.0
  0
SOLID
  5
65BB
  8
0
 62
     7
 10
2631.6622255650391
 20
1290.2877035338749
 30
0.0
 11
2631.6622255650391
 21
1276.9543702005419
 31
0.0
 12
2671.6622255650391
 22
1283.621036867208
 32
0.0
 13
2671.6622255650391
 23
1283.621036867208
 33
0.0
  0
SOLID
  5
65BC
  8
0
 62
     7
 10
2549.6622255650391
 20
1290.2877035338749
 30
0.0
 11
2549.6622255650391
 21
1276.9543702005419
 31
0.0
 12
2509.6622255650391
 22
1283.621036867208
 32
0.0
 13
2509.6622255650391
 23
1283.621036867208
 33
0.0
  0
LINE
  5
65BE
  8
0
 62
     7
 10
2671.6622255650391
 20
1036.3304875050401
 30
0.0
 11
2671.6622255650391
 21
1310.2877035338749
 31
0.0
  0
LINE
  5
65BF
  8
0
 62
     7
 10
3531.6622255650391
 20
1036.3304875050401
 30
0.0
 11
3531.6622255650391
 21
1310.2877035338749
 31
0.0
  0
LINE
  5
65C0
  8
0
 62
     7
 10
2711.6622255650391
 20
1283.621036867208
 30
0.0
 11
3037.4955588983712
 21
1283.621036867208
 31
0.0
  0
LINE
  5
65C1
  8
0
 62
     7
 10
3491.6622255650391
 20
1283.621036867208
 30
0.0
 11
3165.8288922317051
 21
1283.621036867208
 31
0.0
  0
SOLID
  5
65C2
  8
0
 62
     7
 10
2711.6622255650391
 20
1290.2877035338749
 30
0.0
 11
2711.6622255650391
 21
1276.9543702005419
 31
0.0
 12
2671.6622255650391
 22
1283.621036867208
 32
0.0
 13
2671.6622255650391
 23
1283.621036867208
 33
0.0
  0
SOLID
  5
65C3
  8
0
 62
     7
 10
3491.6622255650391
 20
1290.2877035338749
 30
0.0
 11
3491.6622255650391
 21
1276.9543702005419
 31
0.0
 12
3531.6622255650391
 22
1283.621036867208
 32
0.0
 13
3531.6622255650391
 23
1283.621036867208
 33
0.0
  0
LINE
  5
65C5
  8
0
 62
     7
 10
2509.6622255650391
 20
1078.9624780879881
 30
0.0
 11
2509.6622255650391
 21
1376.438018815024
 31
0.0
  0
LINE
  5
65C6
  8
0
 62
     7
 10
3692.6622255650391
 20
1078.9624780879881
 30
0.0
 11
3692.6622255650391
 21
1376.438018815024
 31
0.0
  0
LINE
  5
65C7
  8
0
 62
     7
 10
2549.6622255650391
 20
1349.771352148357
 30
0.0
 11
3029.4955588983712
 21
1349.771352148357
 31
0.0
  0
LINE
  5
65C8
  8
0
 62
     7
 10
3652.66222556504
 20
1349.771352148357
 30
0.0
 11
3172.8288922317038
 21
1349.771352148357
 31
0.0
  0
SOLID
  5
65C9
  8
0
 62
     7
 10
2549.6622255650391
 20
1356.438018815024
 30
0.0
 11
2549.6622255650391
 21
1343.10468548169
 31
0.0
 12
2509.6622255650391
 22
1349.771352148357
 32
0.0
 13
2509.6622255650391
 23
1349.771352148357
 33
0.0
  0
SOLID
  5
65CA
  8
0
 62
     7
 10
3652.66222556504
 20
1356.438018815024
 30
0.0
 11
3652.66222556504
 21
1343.10468548169
 31
0.0
 12
3692.6622255650391
 22
1349.771352148357
 32
0.0
 13
3692.6622255650391
 23
1349.771352148357
 33
0.0
  0
TEXT
  5
6799
  8
0
 62
     7
 10
3056.1622255650391
 20
1334.771352148357
 30
0.0
 40
30.0
  1
1183
  0
TEXT
  5
679C
  8
0
 62
     7
 10
3064.1622255650368
 20
1268.621036867208
 30
0.0
 40
30.0
  1
860
  0
TEXT
  5
679D
  8
0
 62
     7
 10
2372.9955588983712
 20
1268.621036867208
 30
0.0
 40
30.0
  1
162
  0
TEXT
  5
679E
  8
0
 62
     7
 10
3071.1622255650391
 20
1207.4604864515941
 30
0.0
 40
30.0
  1
1062
  0
TEXT
  5
679F
  8
0
 62
     7
 10
2352.9955588983712
 20
1207.463991857466
 30
0.0
 40
30.0
  1
78
  0
TEXT
  5
67A0
  8
0
 62
     7
 10
2995.6622255650391
 20
121.2614080249718
 30
0.0
 40
30.0
  1
1200 O/A
  0
TEXT
  5
67A1
  8
0
 62
     7
 10
2981.1622255650391
 20
184.92214763907981
 30
0.0
 40
30.0
  1
1154 CTRS
  0
TEXT
  5
67A2
  8
0
 62
     7
 10
2368.6717729384968
 20
184.29333757662201
 30
0.0
 40
30.0
  1
20
  0
TEXT
  5
67A3
  8
0
 62
     7
 10
2206.8315954361319
 20
685.45392344622724
 30
0.0
 40
30.0
  1
137
 50
90.0
  0
TEXT
  5
67A4
  8
0
 62
     7
 10
2206.8315954361319
 20
858.53646251045302
 30
0.0
 40
30.0
  1
225
 50
90.0
  0
TEXT
  5
67A5
  8
0
 62
     7
 10
2206.82324965015
 20
466.16382083837431
 30
0.0
 40
30.0
  1
283
 50
90.0
  0
TEXT
  5
67A6
  8
0
 62
     7
 10
2206.700784962647
 20
86.997154171707564
 30
0.0
 40
30.0
  1
106
 50
90.0
  0
TEXT
  5
67A7
  8
0
 62
     7
 10
1471.0341133380871
 20
1205.371994312374
 30
0.0
 40
30.0
  1
1054
  0
TEXT
  5
67A8
  8
0
 62
     7
 10
1447.5376771963131
 20
1267.9581634812901
 30
0.0
 40
30.0
  1
1112 O/A
  0
TEXT
  5
67A9
  8
0
 62
     7
 10
917.13826272372387
 20
615.68880126131558
 30
0.0
 40
30.0
  1
910 O/A
 50
90.0
  0
TEXT
  5
67AA
  8
0
 62
     7
 10
1478.5360143388821
 20
171.58350267863941
 30
0.0
 40
30.0
  1
675
  0
TEXT
  5
67AB
  8
0
 62
     7
 10
1031.2860143388821
 20
170.3881507218041
 30
0.0
 40
30.0
  1
189.5
  0
TEXT
  5
6C86
  8
0
 62
     7
 10
1177.3593115243209
 20
2730.4051911596671
 30
0.0
 40
62.999999998424997
  1
135RKTH
  7
TITLE5
 72
     1
 11
1372.359311519446
 21
2730.4051911596671
 31
0.0
  0
LINE
  5
6E2B
  8
0
  6
PHANTOM2
 10
990.35990283260821
 20
3281.9928473129471
 30
0.0
 11
990.35990283260821
 21
3752.1340965983541
 31
0.0
  0
LINE
  5
6E2E
  8
0
  6
PHANTOM2
 10
991.53601433887877
 20
3752.1305085760291
 30
0.0
 11
1678.3599028326089
 21
3752.1305085760291
 31
0.0
  0
TEXT
  5
6E2F
  8
0
 10
1003.672274413363
 20
3689.2593085326289
 30
0.0
 40
40.0
  1
500 min CLEARANCE
  7
TITLE3
  0
LINE
  5
6E30
  8
0
  6
PHANTOM2
 10
1678.3599028326089
 20
3281.9928473129471
 30
0.0
 11
1678.3599028326089
 21
3752.1305085760291
 31
0.0
  0
LINE
  5
71EB
  8
0
 62
     7
 10
1085.5360143388809
 20
1168.663820838374
 30
0.0
 11
1655.5360143388809
 21
1168.663820838374
 31
0.0
  0
LINE
  5
7206
  8
0
 62
     7
 10
2939.6622255650391
 20
1168.663820838374
 30
0.0
 11
2939.6622255650391
 21
1061.6667229141181
 31
0.0
  0
LINE
  5
7207
  8
0
 62
     7
 10
3509.66222556504
 20
1168.663820838374
 30
0.0
 11
3509.66222556504
 21
1061.6667229141181
 31
0.0
  0
LINE
  5
7208
  8
0
 62
     7
 10
2939.6622255650391
 20
1168.663820838374
 30
0.0
 11
3509.66222556504
 21
1168.663820838374
 31
0.0
  0
LINE
  5
7223
  8
0
 62
     7
 10
3674.1622255650391
 20
268.66382083837391
 30
0.0
 11
3674.1622255650391
 21
248.66382083837399
 31
0.0
  0
ENDSEC
  0
EOF
