  0
SECTION
  2
HEADER
  9
$ACADVER
  1
AC1009
  9
$INSBASE
 10
0.0
 20
0.0
 30
0.0
  9
$EXTMIN
 10
1431.0415793860141
 20
-0.1134489762434896
 30
-0.0000000000000058
  9
$EXTMAX
 10
3890.0135779622742
 20
2312.234555456002
 30
0.0000000000000104
  9
$LIMMIN
 10
0.0
 20
0.0
  9
$LIMMAX
 10
3890.0
 20
2660.0
  9
$ORTHOMODE
 70
     1
  9
$REGENMODE
 70
     1
  9
$FILLMODE
 70
     1
  9
$QTEXTMODE
 70
     0
  9
$MIRRTEXT
 70
     0
  9
$DRAGMODE
 70
     2
  9
$LTSCALE
 40
100.0
  9
$OSMODE
 70
     0
  9
$ATTMODE
 70
     1
  9
$TEXTSIZE
 40
30.0
  9
$TRACEWID
 40
0.05
  9
$TEXTSTYLE
  7
TITLE3
  9
$CLAYER
  8
TEXT
  9
$CELTYPE
  6
BYLAYER
  9
$CECOLOR
 62
   256
  9
$DIMSCALE
 40
1.0
  9
$DIMASZ
 40
30.0
  9
$DIMEXO
 40
20.0
  9
$DIMDLI
 40
0.38
  9
$DIMRND
 40
0.0
  9
$DIMDLE
 40
0.0
  9
$DIMEXE
 40
20.0
  9
$DIMTP
 40
0.0
  9
$DIMTM
 40
0.0
  9
$DIMTXT
 40
30.0
  9
$DIMCEN
 40
0.09
  9
$DIMTSZ
 40
0.0
  9
$DIMTOL
 70
     0
  9
$DIMLIM
 70
     0
  9
$DIMTIH
 70
     0
  9
$DIMTOH
 70
     0
  9
$DIMSE1
 70
     0
  9
$DIMSE2
 70
     0
  9
$DIMTAD
 70
     0
  9
$DIMZIN
 70
     0
  9
$DIMBLK
  1

  9
$DIMASO
 70
     0
  9
$DIMSHO
 70
     0
  9
$DIMPOST
  1

  9
$DIMAPOST
  1

  9
$DIMALT
 70
     0
  9
$DIMALTD
 70
     2
  9
$DIMALTF
 40
25.399999999999999
  9
$DIMLFAC
 40
1.0
  9
$DIMTOFL
 70
     0
  9
$DIMTVP
 40
0.0
  9
$DIMTIX
 70
     0
  9
$DIMSOXD
 70
     0
  9
$DIMSAH
 70
     0
  9
$DIMBLK1
  1

  9
$DIMBLK2
  1

  9
$DIMSTYLE
  2
STANDARD
  9
$DIMCLRD
 70
    52
  9
$DIMCLRE
 70
    52
  9
$DIMCLRT
 70
    50
  9
$DIMTFAC
 40
1.0
  9
$DIMGAP
 40
20.0
  9
$LUNITS
 70
     2
  9
$LUPREC
 70
     2
  9
$SKETCHINC
 40
0.1
  9
$FILLETRAD
 40
0.0
  9
$AUNITS
 70
     0
  9
$AUPREC
 70
     2
  9
$MENU
  1
\acad12\support\cnc
  9
$ELEVATION
 40
0.0
  9
$PELEVATION
 40
0.0
  9
$THICKNESS
 40
0.0
  9
$LIMCHECK
 70
     0
  9
$BLIPMODE
 70
     0
  9
$CHAMFERA
 40
0.0
  9
$CHAMFERB
 40
0.0
  9
$SKPOLY
 70
     0
  9
$TDCREATE
 40
2451407.7046237262
  9
$TDUPDATE
 40
2452929.4382159598
  9
$TDINDWG
 40
0.2528751389
  9
$TDUSRTIMER
 40
0.2528749537
  9
$USRTIMER
 70
     1
  9
$ANGBASE
 50
0.0
  9
$ANGDIR
 70
     0
  9
$PDMODE
 70
     2
  9
$PDSIZE
 40
10.0
  9
$PLINEWID
 40
0.0
  9
$COORDS
 70
     2
  9
$SPLFRAME
 70
     0
  9
$SPLINETYPE
 70
     6
  9
$SPLINESEGS
 70
     8
  9
$ATTDIA
 70
     0
  9
$ATTREQ
 70
     1
  9
$HANDLING
 70
 22529
  9
$HANDSEED
  5
46C7
  9
$SURFTAB1
 70
     6
  9
$SURFTAB2
 70
     6
  9
$SURFTYPE
 70
     6
  9
$SURFU
 70
     6
  9
$SURFV
 70
     6
  9
$UCSNAME
  2

  9
$UCSORG
 10
0.0
 20
0.0
 30
0.0
  9
$UCSXDIR
 10
1.0
 20
0.0
 30
0.0
  9
$UCSYDIR
 10
0.0
 20
1.0
 30
0.0
  9
$PUCSNAME
  2

  9
$PUCSORG
 10
0.0
 20
0.0
 30
0.0
  9
$PUCSXDIR
 10
1.0
 20
0.0
 30
0.0
  9
$PUCSYDIR
 10
0.0
 20
1.0
 30
0.0
  9
$USERI1
 70
     0
  9
$USERI2
 70
     0
  9
$USERI3
 70
     0
  9
$USERI4
 70
     0
  9
$USERI5
 70
     0
  9
$USERR1
 40
0.0
  9
$USERR2
 40
0.0
  9
$USERR3
 40
0.0
  9
$USERR4
 40
0.0
  9
$USERR5
 40
0.0
  9
$WORLDVIEW
 70
     1
  9
$SHADEDGE
 70
     3
  9
$SHADEDIF
 70
    70
  9
$TILEMODE
 70
     1
  9
$MAXACTVP
 70
    16
  9
$PLIMCHECK
 70
     0
  9
$PEXTMIN
 10
1.0000000000000000E+020
 20
1.0000000000000000E+020
 30
1.0000000000000000E+020
  9
$PEXTMAX
 10
-1.0000000000000000E+020
 20
-1.0000000000000000E+020
 30
-1.0000000000000000E+020
  9
$PLIMMIN
 10
0.0
 20
0.0
  9
$PLIMMAX
 10
12.0
 20
9.0
  9
$UNITMODE
 70
     0
  9
$VISRETAIN
 70
     0
  9
$PLINEGEN
 70
     0
  9
$PSLTSCALE
 70
     0
  0
ENDSEC
  0
SECTION
  2
TABLES
  0
TABLE
  2
VPORT
 70
     3
  0
VPORT
  2
*ACTIVE
 70
     0
 10
0.0
 20
0.0
 11
1.0
 21
1.0
 12
2660.5275786741431
 22
1156.060553239879
 13
0.0
 23
0.0
 14
25.0
 24
25.0
 15
100.0
 25
100.0
 16
0.0
 26
0.0
 36
1.0
 17
0.0
 27
0.0
 37
0.0
 40
2337.6195673222151
 41
1.5912408759124079
 42
50.0
 43
0.0
 44
0.0
 50
0.0
 51
0.0
 71
     0
 72
   100
 73
     1
 74
     0
 75
     0
 76
     0
 77
     0
 78
     0
  0
ENDTAB
  0
TABLE
  2
LTYPE
 70
     2
  0
LTYPE
  2
CONTINUOUS
 70
     0
  3
Solid line
 72
    65
 73
     0
 40
0.0
  0
LTYPE
  2
PHANTOM2
 70
     0
  3
Phantom (.5x) ___ _ _ ___ _ _ ___ _ _ ___ _ _
 72
    65
 73
     6
 40
1.25
 49
0.625
 49
-0.125
 49
0.125
 49
-0.125
 49
0.125
 49
-0.125
  0
ENDTAB
  0
TABLE
  2
LAYER
 70
     6
  0
LAYER
  2
0
 70
     0
 62
     7
  6
CONTINUOUS
  0
LAYER
  2
OUTLINE
 70
     0
 62
     7
  6
CONTINUOUS
  0
LAYER
  2
TEXT
 70
     0
 62
   100
  6
CONTINUOUS
  0
LAYER
  2
DIM
 70
     0
 62
    50
  6
CONTINUOUS
  0
LAYER
  2
OVERLAY-A3
 70
     0
 62
     7
  6
CONTINUOUS
  0
LAYER
  2
CLEAR
 70
     0
 62
     1
  6
PHANTOM2
  0
ENDTAB
  0
TABLE
  2
STYLE
 70
     4
  0
STYLE
  2
STANDARD
 70
     0
 40
0.0
 41
1.0
 50
0.0
 71
     0
 42
0.2
  3
txt
  4

  0
STYLE
  2
TITLE3
 70
     0
 40
30.0
 41
1.0
 50
0.0
 71
     0
 42
30.0
  3
SIMPLEX
  4

  0
STYLE
  2
SIMPLEX
 70
     0
 40
40.0
 41
1.0
 50
0.0
 71
     0
 42
25.0
  3
SIMPLEX
  4

  0
STYLE
  2

 70
     1
 40
0.0
 41
1.0
 50
0.0
 71
     0
 42
30.0
  3
ltypeshp.shx
  4

  0
ENDTAB
  0
TABLE
  2
VIEW
 70
     0
  0
ENDTAB
  0
TABLE
  2
UCS
 70
     0
  0
ENDTAB
  0
TABLE
  2
APPID
 70
     1
  0
APPID
  2
ACAD
 70
     0
  0
ENDTAB
  0
TABLE
  2
DIMSTYLE
 70
     1
  0
DIMSTYLE
  2
STANDARD
 70
     0
  3

  4

  5

  6

  7

 40
1.0
 41
0.18
 42
0.0625
 43
0.38
 44
0.18
 45
0.0
 46
0.0
 47
0.0
 48
0.0
140
0.18
141
0.09
142
0.0
143
25.399999999999999
144
1.0
145
0.0
146
1.0
147
0.09
 71
     0
 72
     0
 73
     1
 74
     1
 75
     0
 76
     0
 77
     0
 78
     0
170
     0
171
     2
172
     0
173
     0
174
     0
175
     0
176
     0
177
     0
178
     0
  0
ENDTAB
  0
ENDSEC
  0
SECTION
  2
BLOCKS
  0
BLOCK
  8
0
  2
$MODEL_SPACE
 70
     0
 10
0.0
 20
0.0
 30
0.0
  3
$MODEL_SPACE
  1

  0
ENDBLK
  5
413B
  8
0
  0
BLOCK
 67
     1
  8
0
  2
$PAPER_SPACE
 70
     0
 10
0.0
 20
0.0
 30
0.0
  3
$PAPER_SPACE
  1

  0
ENDBLK
  5
4137
 67
     1
  8
0
  0
BLOCK
  8
0
  2
RO42
 70
     0
 10
0.0
 20
0.0
 30
0.0
  3
RO42
  1

  0
CIRCLE
  5
414F
  8
0
 10
0.0
 20
0.0
 30
0.0
 40
12.699999999999999
  0
ENDBLK
  5
4150
  8
0
  0
BLOCK
  8
0
  2
NEW_BLOCK
 70
     0
 10
0.0
 20
0.0
 30
0.0
  3
NEW_BLOCK
  1

  0
TEXT
  5
4153
  8
TEXT
 10
27.285946821803002
 20
25.27142175952417
 30
0.0
 40
40.0
  1
available on request
  7
TITLE3
  0
TEXT
  5
4154
  8
TEXT
 10
27.285946821803002
 20
93.842850330952714
 30
0.0
 40
40.0
  1
Certified dimensions
  7
TITLE3
  0
TEXT
  5
4155
  8
TEXT
 10
27.285946821803002
 20
162.4142789023812
 30
0.0
 40
40.0
  1
without notice or obligation.
  7
TITLE3
  0
TEXT
  5
4156
  8
TEXT
 10
27.285946821803002
 20
230.9857074738097
 30
0.0
 40
40.0
  1
specifications at any time
  7
TITLE3
  0
TEXT
  5
4157
  8
TEXT
 10
27.285946821803002
 20
299.55713604523839
 30
0.0
 40
40.0
  1
the right to change 
  7
TITLE3
  0
TEXT
  5
4158
  8
TEXT
 10
27.285946821803002
 20
436.69999318809528
 30
0.0
 40
40.0
  1
NOTE
  7
TITLE3
  0
TEXT
  5
4159
  8
TEXT
 10
27.285946821803002
 20
368.12856461666672
 30
0.0
 40
40.0
  1
The manufacturer reserves
  7
TITLE3
  0
ENDBLK
  5
415A
  8
0
  0
BLOCK
  8
0
  2
NEW_BLOCK0
 70
     0
 10
0.0
 20
0.0
 30
0.0
  3
NEW_BLOCK0
  1

  0
INSERT
  5
415D
  8
DIM
  2
NEW_BLOCK
 10
13.048098169647799
 20
6.0725618626865971
 30
0.0
 41
0.7000000000000455
 42
0.6999999999999993
 43
0.7
  0
ENDBLK
  5
415E
  8
0
  0
BLOCK
  8
0
  2
NEW_BLOCK2
 70
     0
 10
0.0
 20
0.0
 30
0.0
  3
NEW_BLOCK2
  1

  0
TEXT
  5
46B9
  8
TEXT
  6
PHANTOM2
 10
-170.45198281351981
 20
-217.0714660736848
 30
0.0
 40
60.0
  1
1000 min 
 50
90.0
  7
TITLE3
  0
TEXT
  5
46BA
  8
TEXT
  6
PHANTOM2
 10
-67.594839956376745
 20
-260.05453039737762
 30
0.0
 40
60.0
  1
CLEARANCE
 50
90.0
  7
TITLE3
  0
ENDBLK
  5
46BC
  8
0
  0
ENDSEC
  0
SECTION
  2
ENTITIES
  0
CIRCLE
  5
45DB
  8
OUTLINE
 10
3276.336632615189
 20
1471.450199310895
 30
0.0
 40
4.75
  0
CIRCLE
  5
45DC
  8
OUTLINE
 10
2626.136632615191
 20
1471.450199310895
 30
0.0
 40
4.75
  0
LINE
  5
45DD
  8
OUTLINE
 10
3310.7266326151862
 20
548.16353722821407
 30
0.0
 11
3310.7266326151862
 21
785.12004364147845
 31
0.0
  0
LINE
  5
45DE
  8
OUTLINE
 10
3335.7266326151862
 20
906.1635372282143
 30
0.0
 11
2565.7266326151871
 21
906.1635372282152
 31
0.0
  0
LINE
  5
45DF
  8
OUTLINE
 10
2590.7266326151862
 20
548.1635372282152
 30
0.0
 11
2590.7266326151862
 21
785.12004364147845
 31
0.0
  0
LINE
  5
45E0
  8
OUTLINE
 10
3320.7266326151862
 20
548.16353722821418
 30
0.0
 11
2580.7266326151871
 21
548.1635372282152
 31
0.0
  0
LINE
  5
45E1
  8
OUTLINE
 10
3310.7266326151889
 20
1483.950199310895
 30
0.0
 11
2590.7266326151889
 21
1483.950199310895
 31
0.0
  0
LINE
  5
45E2
  8
OUTLINE
 10
3285.7266326151889
 20
1458.950199310895
 30
0.0
 11
3335.7266326151889
 21
1508.950199310895
 31
0.0
  0
LINE
  5
45E3
  8
OUTLINE
 10
2590.7266326151889
 20
1988.950199310894
 30
0.0
 11
2590.7266326151889
 21
1483.950199310895
 31
0.0
  0
LINE
  5
45E4
  8
OUTLINE
 10
2590.7266326151889
 20
1988.950199310894
 30
0.0
 11
3310.726632615188
 21
1988.950199310894
 31
0.0
  0
LINE
  5
45E5
  8
OUTLINE
 10
3335.7266326151871
 20
1963.950199310895
 30
0.0
 11
3285.726632615188
 21
2013.9501993108929
 31
0.0
  0
LINE
  5
45E6
  8
OUTLINE
 10
2615.7266326151889
 20
2013.9501993108929
 30
0.0
 11
2565.7266326151889
 21
1963.950199310895
 31
0.0
  0
LINE
  5
45E7
  8
OUTLINE
 10
2615.7266326151889
 20
1458.9501993108929
 30
0.0
 11
2565.7266326151889
 21
1508.950199310895
 31
0.0
  0
CIRCLE
  5
45E8
  8
OUTLINE
 10
2626.1366326151901
 20
2001.450199310894
 30
0.0
 40
4.75
  0
CIRCLE
  5
45E9
  8
OUTLINE
 10
3276.336632615189
 20
2001.450199310894
 30
0.0
 40
4.75
  0
LINE
  5
45EA
  8
OUTLINE
 10
2665.2266326151871
 20
889.66353722821441
 30
0.0
 11
3254.2266326151862
 21
889.66353722821464
 31
0.0
  0
LINE
  5
45EB
  8
OUTLINE
 10
2665.2266326151871
 20
605.66353722821452
 30
0.0
 11
3254.2266326151862
 21
605.66353722821418
 31
0.0
  0
LINE
  5
45EC
  8
OUTLINE
 10
2665.2266326151871
 20
889.66353722821441
 30
0.0
 11
2665.2266326151871
 21
605.66353722821452
 31
0.0
  0
LINE
  5
45ED
  8
OUTLINE
 10
3254.2266326151862
 20
889.66353722821464
 30
0.0
 11
3254.2266326151862
 21
605.66353722821418
 31
0.0
  0
LINE
  5
45EE
  8
OUTLINE
 10
2581.7266326151889
 20
2053.9501993108929
 30
0.0
 11
2581.7266326151889
 21
1979.950199310894
 31
0.0
  0
LINE
  5
45EF
  8
OUTLINE
 10
2628.7266326151889
 20
2053.9501993108952
 30
0.0
 11
2628.7266326151889
 21
2013.9501993108929
 31
0.0
  0
LINE
  5
45F0
  8
OUTLINE
 10
3319.7266326151871
 20
862.12004364147845
 30
0.0
 11
3319.7266326151871
 21
792.12004364147845
 31
0.0
  0
LINE
  5
45F1
  8
OUTLINE
 10
3272.7266326151871
 20
862.12004364147845
 30
0.0
 11
3272.7266326151871
 21
792.12004364147845
 31
0.0
  0
LINE
  5
45F2
  8
OUTLINE
 10
3272.7266326151871
 20
792.12004364147845
 30
0.0
 11
3319.7266326151871
 21
792.12004364147845
 31
0.0
  0
LINE
  5
45F3
  8
OUTLINE
 10
3313.7266326151862
 20
785.12004364147845
 30
0.0
 11
3278.7266326151862
 21
785.12004364147845
 31
0.0
  0
LINE
  5
45F4
  8
OUTLINE
 10
3278.7266326151862
 20
785.12004364147822
 30
0.0
 11
3278.7266326151862
 21
792.12004364147845
 31
0.0
  0
LINE
  5
45F5
  8
OUTLINE
 10
3313.7266326151862
 20
785.12004364147822
 30
0.0
 11
3313.7266326151862
 21
792.12004364147845
 31
0.0
  0
LINE
  5
45F6
  8
OUTLINE
 10
3272.7266326151871
 20
862.12004364147845
 30
0.0
 11
3319.7266326151871
 21
862.12004364147845
 31
0.0
  0
LINE
  5
45F7
  8
OUTLINE
 10
2581.7266326151889
 20
2053.9501993108929
 30
0.0
 11
2628.7266326151889
 21
2053.9501993108952
 31
0.0
  0
CIRCLE
  5
45F8
  8
OUTLINE
 10
2605.2266326151889
 20
2033.9501993108929
 30
0.0
 40
5.0
  0
LINE
  5
45F9
  8
OUTLINE
 10
3319.7266326151889
 20
2053.9501993108929
 30
0.0
 11
3272.7266326151889
 21
2053.9501993108952
 31
0.0
  0
LINE
  5
45FA
  8
OUTLINE
 10
3319.7266326151889
 20
2053.9501993108929
 30
0.0
 11
3319.7266326151889
 21
1979.950199310894
 31
0.0
  0
LINE
  5
45FB
  8
OUTLINE
 10
3272.7266326151889
 20
2053.9501993108952
 30
0.0
 11
3272.7266326151889
 21
2013.9501993108929
 31
0.0
  0
CIRCLE
  5
45FC
  8
OUTLINE
 10
3296.2266326151889
 20
2033.9501993108929
 30
0.0
 40
5.0
  0
LINE
  5
45FD
  8
OUTLINE
 10
2581.7266326151889
 20
1418.950199310895
 30
0.0
 11
2628.7266326151889
 21
1418.9501993108929
 31
0.0
  0
LINE
  5
45FE
  8
OUTLINE
 10
2581.7266326151889
 20
1418.950199310895
 30
0.0
 11
2581.7266326151889
 21
1492.950199310895
 31
0.0
  0
LINE
  5
45FF
  8
OUTLINE
 10
2628.7266326151889
 20
1418.9501993108929
 30
0.0
 11
2628.7266326151889
 21
1458.950199310895
 31
0.0
  0
CIRCLE
  5
4600
  8
OUTLINE
 10
2605.2266326151889
 20
1438.950199310895
 30
0.0
 40
5.0
  0
LINE
  5
4601
  8
OUTLINE
 10
3272.7266326151889
 20
1418.9501993108929
 30
0.0
 11
3272.7266326151889
 21
1458.950199310895
 31
0.0
  0
LINE
  5
4602
  8
OUTLINE
 10
3319.7266326151889
 20
1418.950199310895
 30
0.0
 11
3319.7266326151889
 21
1492.950199310895
 31
0.0
  0
LINE
  5
4603
  8
OUTLINE
 10
3303.2266326151889
 20
1483.950199310895
 30
0.0
 11
3267.2266326151889
 21
1483.950199310895
 31
0.0
  0
CIRCLE
  5
4604
  8
OUTLINE
 10
3296.2266326151889
 20
1438.950199310895
 30
0.0
 40
5.0
  0
LINE
  5
4605
  8
OUTLINE
 10
3319.7266326151889
 20
1418.950199310895
 30
0.0
 11
3272.7266326151889
 21
1418.9501993108929
 31
0.0
  0
LINE
  5
4606
  8
OUTLINE
 10
2795.9766326151889
 20
2049.9501993108929
 30
0.0
 11
2795.9766326151889
 21
2013.9501993108929
 31
0.0
  0
LINE
  5
4607
  8
OUTLINE
 10
2794.976632615188
 20
2049.9501993108929
 30
0.0
 11
2794.976632615188
 21
2013.9501993108929
 31
0.0
  0
LINE
  5
4608
  8
OUTLINE
 10
3194.976632615188
 20
2049.9501993108929
 30
0.0
 11
3194.976632615188
 21
2013.9501993108929
 31
0.0
  0
LINE
  5
4609
  8
OUTLINE
 10
3194.976632615188
 20
2049.9501993108929
 30
0.0
 11
2794.9766326151889
 21
2049.9501993108929
 31
0.0
  0
LINE
  5
460A
  8
OUTLINE
 10
2666.2266326151889
 20
1422.950199310895
 30
0.0
 11
2666.2266326151889
 21
1458.950199310895
 31
0.0
  0
LINE
  5
460B
  8
OUTLINE
 10
3254.2266326151889
 20
1422.950199310895
 30
0.0
 11
3254.2266326151889
 21
1458.950199310895
 31
0.0
  0
LINE
  5
460C
  8
OUTLINE
 10
2666.2266326151889
 20
1422.950199310895
 30
0.0
 11
3254.2266326151889
 21
1422.950199310895
 31
0.0
  0
LINE
  5
460D
  8
OUTLINE
 10
3335.7266326151889
 20
1508.950199310895
 30
0.0
 11
3335.7266326151871
 21
1963.950199310895
 31
0.0
  0
LINE
  5
460E
  8
OUTLINE
 10
3310.7266326151889
 20
1483.950199310895
 30
0.0
 11
3310.726632615188
 21
1988.950199310894
 31
0.0
  0
LINE
  5
460F
  8
OUTLINE
 10
2581.7266326151862
 20
862.12004364147845
 30
0.0
 11
2581.7266326151862
 21
792.12004364147845
 31
0.0
  0
LINE
  5
4610
  8
OUTLINE
 10
2628.7266326151862
 20
862.12004364147845
 30
0.0
 11
2628.7266326151871
 21
792.12004364147845
 31
0.0
  0
LINE
  5
4611
  8
OUTLINE
 10
2622.7266326151871
 20
785.12004364147845
 30
0.0
 11
2587.7266326151862
 21
785.12004364147845
 31
0.0
  0
LINE
  5
4612
  8
OUTLINE
 10
2581.7266326151862
 20
792.12004364147845
 30
0.0
 11
2628.7266326151871
 21
792.12004364147845
 31
0.0
  0
LINE
  5
4613
  8
OUTLINE
 10
2587.7266326151862
 20
785.12004364147822
 30
0.0
 11
2587.7266326151862
 21
792.12004364147845
 31
0.0
  0
LINE
  5
4614
  8
OUTLINE
 10
2622.7266326151871
 20
785.12004364147822
 30
0.0
 11
2622.7266326151871
 21
792.12004364147845
 31
0.0
  0
LINE
  5
4615
  8
OUTLINE
 10
2581.7266326151862
 20
862.12004364147845
 30
0.0
 11
2628.7266326151862
 21
862.12004364147845
 31
0.0
  0
LINE
  5
4616
  8
OUTLINE
 10
3310.7266326151862
 20
862.12004364147845
 30
0.0
 11
3310.726632615188
 21
906.1635372282143
 31
0.0
  0
LINE
  5
4617
  8
OUTLINE
 10
2590.7266326151862
 20
862.12004364147845
 30
0.0
 11
2590.7266326151862
 21
906.1635372282152
 31
0.0
  0
LINE
  5
4618
  8
DIM
 62
    52
 10
2573.437028173013
 20
2033.9501993108929
 30
0.0
 11
2371.3399214277269
 21
2033.9501993108929
 31
0.0
  0
SOLID
  5
4619
  8
DIM
 62
     7
 10
2386.339921427726
 20
2003.950199310895
 30
0.0
 11
2396.3399214277269
 21
2003.950199310895
 31
0.0
 12
2391.339921427726
 22
2033.9501993108929
 32
0.0
 13
2391.339921427726
 23
2033.9501993108929
 33
0.0
  0
LINE
  5
461A
  8
DIM
 62
    52
 10
2588.8570281730149
 20
2001.450199310894
 30
0.0
 11
2447.582330238251
 21
2001.450199310894
 31
0.0
  0
SOLID
  5
461B
  8
DIM
 62
     7
 10
2462.582330238251
 20
1971.4501993108929
 30
0.0
 11
2472.582330238251
 21
1971.4501993108929
 31
0.0
 12
2467.582330238251
 22
2001.450199310894
 32
0.0
 13
2467.582330238251
 23
2001.450199310894
 33
0.0
  0
LINE
  5
461C
  8
DIM
 62
    52
 10
2391.339921427726
 20
2003.950199310895
 30
0.0
 11
2391.339921427726
 21
1795.021627882322
 31
0.0
  0
LINE
  5
461D
  8
DIM
 62
    52
 10
2467.582330238251
 20
1971.4501993108929
 30
0.0
 11
2467.582330238251
 21
1795.021627882322
 31
0.0
  0
LINE
  5
461E
  8
DIM
 62
    52
 10
2573.437028173013
 20
1438.950199310895
 30
0.0
 11
2371.3399214277269
 21
1438.950199310895
 31
0.0
  0
LINE
  5
461F
  8
DIM
 62
    52
 10
2391.339921427726
 20
1468.950199310895
 30
0.0
 11
2391.339921427726
 21
1677.8787707394649
 31
0.0
  0
SOLID
  5
4620
  8
DIM
 62
     7
 10
2386.339921427726
 20
1468.950199310895
 30
0.0
 11
2396.3399214277269
 21
1468.950199310895
 31
0.0
 12
2391.339921427726
 22
1438.950199310895
 32
0.0
 13
2391.339921427726
 23
1438.950199310895
 33
0.0
  0
TEXT
  5
4621
  8
DIM
 62
    50
 10
2406.3399214277269
 20
1697.8787707394661
 30
0.0
 40
30.0
  1
595
 50
90.0
  7
TITLE3
 72
     1
 11
2391.339921427726
 21
1736.450199310895
 31
0.0
 73
     2
  0
LINE
  5
4622
  8
DIM
 62
    52
 10
2467.582330238251
 20
1501.450199310895
 30
0.0
 11
2467.582330238251
 21
1677.8787707394649
 31
0.0
  0
SOLID
  5
4623
  8
DIM
 62
     7
 10
2462.582330238251
 20
1501.450199310895
 30
0.0
 11
2472.582330238251
 21
1501.450199310895
 31
0.0
 12
2467.582330238251
 22
1471.450199310895
 32
0.0
 13
2467.582330238251
 23
1471.450199310895
 33
0.0
  0
LINE
  5
4624
  8
DIM
 62
    52
 10
2588.8370281730149
 20
1471.450199310895
 30
0.0
 11
2447.582330238251
 21
1471.450199310895
 31
0.0
  0
TEXT
  5
4625
  8
DIM
 62
    50
 10
2482.582330238251
 20
1697.8787707394661
 30
0.0
 40
30.0
  1
530
 50
90.0
  7
TITLE3
 72
     1
 11
2467.582330238251
 21
1736.450199310895
 31
0.0
 73
     2
  0
TEXT
  5
4626
  8
DIM
 62
    50
 10
3431.8334217091342
 20
688.59210865678585
 30
0.0
 40
30.0
  1
358
 50
90.0
  7
TITLE3
 72
     1
 11
3416.8334217091351
 21
727.16353722821441
 31
0.0
 73
     2
  0
LINE
  5
4627
  8
DIM
 62
    52
 10
3337.920707485805
 20
548.16353722821418
 30
0.0
 11
3436.8334217091342
 21
548.16353722821418
 31
0.0
  0
LINE
  5
4628
  8
DIM
 62
    52
 10
3416.8334217091351
 20
578.1635372282143
 30
0.0
 11
3416.8334217091351
 21
676.28629215144122
 31
0.0
  0
SOLID
  5
4629
  8
DIM
 62
     7
 10
3411.8334217091342
 20
578.1635372282143
 30
0.0
 11
3421.8334217091342
 21
578.1635372282143
 31
0.0
 12
3416.8334217091351
 22
548.16353722821418
 32
0.0
 13
3416.8334217091351
 23
548.16353722821418
 33
0.0
  0
SOLID
  5
462A
  8
DIM
 62
     7
 10
3411.8334217091342
 20
876.16353722821441
 30
0.0
 11
3421.8334217091342
 21
876.16353722821441
 31
0.0
 12
3416.8334217091351
 22
906.1635372282143
 32
0.0
 13
3416.8334217091351
 23
906.1635372282143
 33
0.0
  0
LINE
  5
462B
  8
DIM
 62
    52
 10
3353.920707485805
 20
906.1635372282143
 30
0.0
 11
3436.8334217091342
 21
906.1635372282143
 31
0.0
  0
LINE
  5
462C
  8
DIM
 62
    52
 10
3416.8334217091351
 20
876.16353722821441
 30
0.0
 11
3416.8334217091351
 21
775.58989292912236
 31
0.0
  0
LINE
  5
462D
  8
DIM
 62
    52
 10
2626.1366326151901
 20
1447.066867244989
 30
0.0
 11
2626.1366326151901
 21
1291.919028273823
 31
0.0
  0
LINE
  5
462E
  8
DIM
 62
    52
 10
3276.336632615189
 20
1447.066867244989
 30
0.0
 11
3276.336632615189
 21
1291.919028273823
 31
0.0
  0
LINE
  5
462F
  8
DIM
 62
    52
 10
2656.1366326151901
 20
1311.919028273823
 30
0.0
 11
2892.6652040437612
 21
1311.919028273823
 31
0.0
  0
LINE
  5
4630
  8
DIM
 62
    52
 10
3246.336632615189
 20
1311.919028273823
 30
0.0
 11
3009.808061186618
 21
1311.919028273823
 31
0.0
  0
SOLID
  5
4631
  8
DIM
 62
     7
 10
2656.1366326151901
 20
1316.919028273823
 30
0.0
 11
2656.1366326151901
 21
1306.919028273823
 31
0.0
 12
2626.1366326151901
 22
1311.919028273823
 32
0.0
 13
2626.1366326151901
 23
1311.919028273823
 33
0.0
  0
SOLID
  5
4632
  8
DIM
 62
     7
 10
3246.336632615189
 20
1316.919028273823
 30
0.0
 11
3246.336632615189
 21
1306.919028273823
 31
0.0
 12
3276.336632615189
 22
1311.919028273823
 32
0.0
 13
3276.336632615189
 23
1311.919028273823
 33
0.0
  0
TEXT
  5
4633
  8
DIM
 62
    50
 10
2912.6652040437612
 20
1296.919028273823
 30
0.0
 40
30.0
  1
650
  7
TITLE3
 72
     1
 11
2951.2366326151891
 21
1311.919028273823
 31
0.0
 73
     2
  0
LINE
  5
4634
  8
DIM
 62
    52
 10
2565.7266326151871
 20
926.16353722821509
 30
0.0
 11
2565.7266326151871
 21
1016.838642921031
 31
0.0
  0
LINE
  5
4635
  8
DIM
 62
    52
 10
3335.7266326151862
 20
926.16353722821441
 30
0.0
 11
3335.7266326151862
 21
1016.838642921031
 31
0.0
  0
LINE
  5
4636
  8
DIM
 62
    52
 10
2595.7266326151871
 20
996.83864292103237
 30
0.0
 11
2877.9070058723478
 21
996.83864292103237
 31
0.0
  0
LINE
  5
4637
  8
DIM
 62
    52
 10
3305.7266326151862
 20
996.83864292103237
 30
0.0
 11
2995.3419151730291
 21
996.83864292103237
 31
0.0
  0
SOLID
  5
4638
  8
DIM
 62
     7
 10
2595.7266326151871
 20
1001.838642921031
 30
0.0
 11
2595.7266326151871
 21
991.83864292103249
 31
0.0
 12
2565.7266326151871
 22
996.83864292103237
 32
0.0
 13
2565.7266326151871
 23
996.83864292103237
 33
0.0
  0
SOLID
  5
4639
  8
DIM
 62
     7
 10
3305.7266326151862
 20
1001.838642921031
 30
0.0
 11
3305.7266326151862
 21
991.83864292103249
 31
0.0
 12
3335.7266326151862
 22
996.83864292103237
 32
0.0
 13
3335.7266326151862
 23
996.83864292103237
 33
0.0
  0
TEXT
  5
463A
  8
DIM
 62
    50
 10
2894.2980611866151
 20
981.83864292103237
 30
0.0
 40
30.0
  1
770 
  7
TITLE3
 72
     1
 11
2950.7266326151862
 21
996.83864292103237
 31
0.0
 73
     2
  0
LINE
  5
463B
  8
DIM
 62
    52
 10
2605.2266326151889
 20
2053.9501993108929
 30
0.0
 11
2605.2266326151889
 21
2207.7490300544309
 31
0.0
  0
LINE
  5
463C
  8
DIM
 62
    52
 10
3296.2266326151889
 20
2053.9501993108929
 30
0.0
 11
3296.2266326151889
 21
2207.7490300544309
 31
0.0
  0
LINE
  5
463D
  8
DIM
 62
    52
 10
2635.2266326151889
 20
2187.7490300544309
 30
0.0
 11
2893.6995100724162
 21
2187.7490300544309
 31
0.0
  0
LINE
  5
463E
  8
DIM
 62
    52
 10
3266.2266326151889
 20
2187.7490300544309
 30
0.0
 11
3004.245684339196
 21
2187.7490300544309
 31
0.0
  0
SOLID
  5
463F
  8
DIM
 62
     7
 10
2635.2266326151889
 20
2192.7490300544309
 30
0.0
 11
2635.2266326151889
 21
2182.74903005443
 31
0.0
 12
2605.2266326151889
 22
2187.7490300544309
 32
0.0
 13
2605.2266326151889
 23
2187.7490300544309
 33
0.0
  0
SOLID
  5
4640
  8
DIM
 62
     7
 10
3266.2266326151889
 20
2192.7490300544309
 30
0.0
 11
3266.2266326151889
 21
2182.74903005443
 31
0.0
 12
3296.2266326151889
 22
2187.7490300544309
 32
0.0
 13
3296.2266326151889
 23
2187.7490300544309
 33
0.0
  0
TEXT
  5
4641
  8
DIM
 62
    50
 10
2918.5837754723311
 20
2172.74903005443
 30
0.0
 40
30.0
  1
691
  7
TITLE3
 72
     1
 11
2950.7266326151889
 21
2187.7490300544309
 31
0.0
 73
     2
  0
TEXT
  5
4642
  8
TEXT
 10
2948.394065173025
 20
110.0
 30
0.0
 40
30.0
  1
16.10.03
 41
0.8888888888888894
  7
TITLE3
 72
     5
 11
3108.394065173025
 21
110.0
 31
0.0
  0
LINE
  5
4643
  8
OUTLINE
 10
2523.9766326151889
 20
1666.9501993108929
 30
0.0
 11
2565.7266326151889
 21
1666.9501993108929
 31
0.0
  0
LINE
  5
4644
  8
OUTLINE
 10
2523.9766326151889
 20
1686.9501993108929
 30
0.0
 11
2565.7266326151889
 21
1686.950199310895
 31
0.0
  0
LINE
  5
4645
  8
OUTLINE
 10
2523.9766326151889
 20
1686.9501993108929
 30
0.0
 11
2523.9766326151889
 21
1666.9501993108929
 31
0.0
  0
LINE
  5
4646
  8
OUTLINE
 10
2523.9766326151889
 20
580.12004364147765
 30
0.0
 11
2590.7266326151862
 21
580.12004364147765
 31
0.0
  0
LINE
  5
4647
  8
OUTLINE
 10
2523.9766326151889
 20
560.12004364147765
 30
0.0
 11
2590.7266326151862
 21
560.12004364147742
 31
0.0
  0
LINE
  5
4648
  8
OUTLINE
 10
2523.9766326151889
 20
580.12004364147765
 30
0.0
 11
2523.9766326151889
 21
560.12004364147765
 31
0.0
  0
LINE
  5
4649
  8
OUTLINE
 10
2319.0950666426061
 20
613.55381830716965
 30
0.0
 11
2258.0950666426061
 21
613.55381830716965
 31
0.0
  0
LINE
  5
464A
  8
OUTLINE
 10
2319.0950666426061
 20
897.55381830717022
 30
0.0
 11
2258.0950666426061
 21
897.55381830716976
 31
0.0
  0
LINE
  5
464B
  8
OUTLINE
 10
2270.5950666426061
 20
812.5103247204338
 30
0.0
 11
2323.095066642607
 21
812.5103247204338
 31
0.0
  0
LINE
  5
464C
  8
OUTLINE
 10
2285.5950666426061
 20
793.01032472043369
 30
0.0
 11
2320.5950666426061
 21
793.01032472043369
 31
0.0
  0
LINE
  5
464D
  8
OUTLINE
 10
2258.0950666426061
 20
800.0103247204338
 30
0.0
 11
2323.095066642607
 21
800.0103247204338
 31
0.0
  0
LINE
  5
464E
  8
OUTLINE
 10
1753.0053778947649
 20
901.05381830717022
 30
0.0
 11
1692.005377894764
 21
901.05381830717033
 31
0.0
  0
LINE
  5
464F
  8
OUTLINE
 10
1752.0053778947649
 20
676.05381830717045
 30
0.0
 11
1692.005377894764
 21
676.05381830717045
 31
0.0
  0
LINE
  5
4650
  8
OUTLINE
 10
1753.0053778947649
 20
800.0103247204338
 30
0.0
 11
1688.005377894767
 21
800.0103247204338
 31
0.0
  0
LINE
  5
4651
  8
OUTLINE
 10
1725.505377894767
 20
793.01032472043369
 30
0.0
 11
1690.5053778947649
 21
793.01032472043369
 31
0.0
  0
LINE
  5
4652
  8
OUTLINE
 10
1740.5053778947649
 20
812.5103247204338
 30
0.0
 11
1688.005377894767
 21
812.5103247204338
 31
0.0
  0
LINE
  5
4653
  8
OUTLINE
 10
1692.005377894764
 20
901.05381830717033
 30
0.0
 11
1692.005377894764
 21
812.51032472043414
 31
0.0
  0
LINE
  5
4654
  8
OUTLINE
 10
1690.5053778947649
 20
793.01032472043369
 30
0.0
 11
1690.5053778947649
 21
800.0103247204338
 31
0.0
  0
LINE
  5
4655
  8
OUTLINE
 10
1688.005377894767
 20
800.0103247204338
 30
0.0
 11
1688.005377894767
 21
812.5103247204338
 31
0.0
  0
LINE
  5
4656
  8
OUTLINE
 10
1753.0053778947649
 20
556.01032472043403
 30
0.0
 11
1753.0053778947649
 21
914.05381830717101
 31
0.0
  0
LINE
  5
4657
  8
OUTLINE
 10
2258.0950666426061
 20
556.01032472043403
 30
0.0
 11
2258.0950666426061
 21
914.05381830717045
 31
0.0
  0
LINE
  5
4658
  8
OUTLINE
 10
1743.0053778947661
 20
556.01032472043403
 30
0.0
 11
2268.095066642607
 21
556.01032472043403
 31
0.0
  0
LINE
  5
4659
  8
OUTLINE
 10
1753.0053778947649
 20
661.05381830717045
 30
0.0
 11
1752.0053778947649
 21
661.05381830717045
 31
0.0
  0
CIRCLE
  5
465A
  8
OUTLINE
 10
2170.5114509080022
 20
655.3583750860123
 30
0.0
 40
16.542141810320611
  0
INSERT
  5
465B
  8
OUTLINE
  2
RO42
 10
2065.5053778947649
 20
578.01032472043312
 30
0.0
 41
-1.0
  0
LINE
  5
465C
  8
OUTLINE
 10
2283.0950666426061
 20
914.05381830717101
 30
0.0
 11
1728.0053778947649
 21
914.05381830717101
 31
0.0
  0
LINE
  5
465D
  8
OUTLINE
 10
1740.5053778947649
 20
812.5103247204338
 30
0.0
 11
1740.5053778947649
 21
870.01032472043369
 31
0.0
  0
LINE
  5
465E
  8
OUTLINE
 10
1725.505377894767
 20
793.01032472043369
 30
0.0
 11
1725.5053778947661
 21
800.0103247204338
 31
0.0
  0
LINE
  5
465F
  8
OUTLINE
 10
1753.0053778947649
 20
870.01032472043369
 30
0.0
 11
1740.5053778947649
 21
870.01032472043369
 31
0.0
  0
CIRCLE
  5
4660
  8
OUTLINE
 10
2198.0004509080031
 20
829.21990635485372
 30
0.0
 40
16.542141810320611
  0
LINE
  5
4661
  8
OUTLINE
 10
2270.5950666426061
 20
812.5103247204338
 30
0.0
 11
2270.595066642607
 21
870.01032472043369
 31
0.0
  0
LINE
  5
4662
  8
OUTLINE
 10
2285.5950666426061
 20
793.01032472043369
 30
0.0
 11
2285.5950666426061
 21
800.0103247204338
 31
0.0
  0
LINE
  5
4663
  8
OUTLINE
 10
2258.0950666426061
 20
870.01032472043369
 30
0.0
 11
2270.595066642607
 21
870.01032472043369
 31
0.0
  0
LINE
  5
4664
  8
OUTLINE
 10
2319.0950666426061
 20
613.55381830716965
 30
0.0
 11
2319.0950666426061
 21
793.01032472043369
 31
0.0
  0
LINE
  5
4665
  8
OUTLINE
 10
2323.095066642607
 20
800.0103247204338
 30
0.0
 11
2323.095066642607
 21
812.5103247204338
 31
0.0
  0
LINE
  5
4666
  8
OUTLINE
 10
2320.5950666426061
 20
793.01032472043369
 30
0.0
 11
2320.5950666426061
 21
800.0103247204338
 31
0.0
  0
LINE
  5
4667
  8
OUTLINE
  6
CONTINUOUS
 10
2520.1067064912208
 20
671.00543447121186
 30
0.0
 11
2520.1067064912208
 21
639.71131570081218
 31
0.0
  0
LINE
  5
4668
  8
OUTLINE
 10
2520.1067064912208
 20
639.71131570081218
 30
0.0
 11
2520.955676793521
 21
638.86234539851205
 31
0.0
  0
LINE
  5
4669
  8
OUTLINE
 10
2520.1067064912208
 20
671.00543447121186
 30
0.0
 11
2520.955676793521
 21
671.85440477351244
 31
0.0
  0
LINE
  5
466A
  8
OUTLINE
 10
2546.1004502412211
 20
636.36294696101197
 30
0.0
 11
2590.7266326151862
 21
636.36294696101197
 31
0.0
  0
LINE
  5
466B
  8
OUTLINE
 10
2546.1004502412211
 20
674.35380321101229
 30
0.0
 11
2546.1004502412211
 21
636.36294696101197
 31
0.0
  0
LINE
  5
466C
  8
OUTLINE
 62
   141
 10
2546.1004502412211
 20
636.36294696101197
 30
0.0
 11
2546.1004502412211
 21
642.07165033647436
 31
0.0
  0
LINE
  5
466D
  8
OUTLINE
 10
2546.1004502412211
 20
638.86234539851205
 30
0.0
 11
2520.955676793521
 21
638.86234539851205
 31
0.0
  0
LINE
  5
466E
  8
OUTLINE
 62
   141
 10
2546.1004502412211
 20
674.35380321101229
 30
0.0
 11
2546.1004502412211
 21
668.64509983555013
 31
0.0
  0
LINE
  5
466F
  8
OUTLINE
 10
2546.1004502412211
 20
671.85440477351244
 30
0.0
 11
2520.955676793521
 21
671.85440477351244
 31
0.0
  0
LINE
  5
4670
  8
OUTLINE
 62
   141
 10
2546.1004502412211
 20
636.36294696101197
 30
0.0
 11
2551.0992471162208
 21
636.36294696101163
 31
0.0
  0
LINE
  5
4671
  8
OUTLINE
 10
2546.1004502412211
 20
674.35380321101229
 30
0.0
 11
2590.7266326151862
 21
674.35380321101229
 31
0.0
  0
LINE
  5
4672
  8
OUTLINE
 10
2546.9104871162208
 20
848.17719435485355
 30
0.0
 11
2546.9104871162208
 21
810.26261835485354
 31
0.0
  0
LINE
  5
4673
  8
OUTLINE
  6
CONTINUOUS
 10
2520.968935116221
 20
842.93899635485354
 30
0.0
 11
2520.968935116221
 21
815.50081635485355
 31
0.0
  0
LINE
  5
4674
  8
OUTLINE
 10
2546.9104871162208
 20
812.75699835485364
 30
0.0
 11
2522.964439116221
 21
812.75699835485364
 31
0.0
  0
LINE
  5
4675
  8
OUTLINE
 10
2522.964439116221
 20
812.75699835485364
 30
0.0
 11
2520.968935116221
 21
815.50081635485355
 31
0.0
  0
LINE
  5
4676
  8
OUTLINE
 62
   141
 10
2546.9104871162208
 20
810.26261835485354
 30
0.0
 11
2546.9104871162208
 21
815.95985946376925
 31
0.0
  0
LINE
  5
4677
  8
OUTLINE
 10
2546.9104871162208
 20
810.26261835485354
 30
0.0
 11
2581.7266326151862
 21
810.26261835485445
 31
0.0
  0
LINE
  5
4678
  8
OUTLINE
 10
2546.9104871162208
 20
845.68281435485324
 30
0.0
 11
2522.964439116221
 21
845.68281435485324
 31
0.0
  0
LINE
  5
4679
  8
OUTLINE
 10
2522.964439116221
 20
845.68281435485324
 30
0.0
 11
2520.968935116221
 21
842.93899635485354
 31
0.0
  0
LINE
  5
467A
  8
OUTLINE
 62
   141
 10
2546.9104871162208
 20
848.17719435485355
 30
0.0
 11
2546.9104871162208
 21
842.47995324593739
 31
0.0
  0
LINE
  5
467B
  8
OUTLINE
 10
2546.9104871162208
 20
848.17719435485355
 30
0.0
 11
2581.7266326151862
 21
848.1771943548531
 31
0.0
  0
LINE
  5
467C
  8
OUTLINE
 10
2565.7266326151889
 20
1963.950199310895
 30
0.0
 11
2565.7266326151889
 21
1508.950199310895
 31
0.0
  0
LINE
  5
467D
  8
OUTLINE
 10
3285.7266326151889
 20
1458.950199310895
 30
0.0
 11
2615.7266326151889
 21
1458.9501993108929
 31
0.0
  0
LINE
  5
467E
  8
OUTLINE
 10
2615.7266326151889
 20
2013.9501993108929
 30
0.0
 11
3285.726632615188
 21
2013.9501993108929
 31
0.0
  0
TEXT
  5
467F
  8
OVERLAY-A3
 10
2844.9791086552332
 20
110.8312138601009
 30
0.0
 40
24.0
  1
Date
  7
SIMPLEX
  0
TEXT
  5
4680
  8
OVERLAY-A3
 10
3746.1111923736021
 20
129.50330202341121
 30
0.0
 40
24.0
  1
Revision
 41
0.7812095035934772
  7
SIMPLEX
 72
     5
 11
3851.4628740010648
 21
129.50330202341121
 31
0.0
  0
LINE
  5
4681
  8
OVERLAY-A3
 10
3734.49134999016
 20
20.842492848317129
 30
0.0
 11
3734.49134999016
 21
168.2686557085465
 31
0.0
  0
LINE
  5
4682
  8
OVERLAY-A3
 10
2819.3515294571471
 20
328.32822156754241
 30
0.0
 11
2819.3515294571471
 21
20.842492848317129
 31
0.0
  0
LINE
  5
4683
  8
OVERLAY-A3
 10
3416.913678013093
 20
20.842492848317129
 30
0.0
 11
3416.913678013093
 21
168.2686557085465
 31
0.0
  0
LINE
  5
4684
  8
OVERLAY-A3
 10
3416.913678013093
 20
93.312599269463774
 30
0.0
 11
2819.3515294571471
 21
93.312599269463774
 31
0.0
  0
LINE
  5
4685
  8
OVERLAY-A3
 10
3861.5754652378419
 20
168.26865570854659
 30
0.0
 11
2819.3515294571471
 21
168.26865570854659
 31
0.0
  0
LINE
  5
4686
  8
OVERLAY-A3
 10
2819.3515294571471
 20
20.842492848317129
 30
0.0
 11
3861.2779580594911
 21
20.842492848317129
 31
0.0
  0
LINE
  5
4687
  8
OVERLAY-A3
 10
3861.2779580594911
 20
20.842492848317129
 30
0.0
 11
3861.2779580594911
 21
328.32822156754241
 31
0.0
  0
LINE
  5
4688
  8
OVERLAY-A3
 10
3861.2779580594911
 20
328.32822156754241
 30
0.0
 11
2819.3515294571471
 21
328.32822156754241
 31
0.0
  0
TEXT
  5
4689
  8
OVERLAY-A3
 10
2844.4832191031091
 20
47.922488065357683
 30
0.0
 40
20.0
  1
Scale
 41
1.3701747965659781
  7
SIMPLEX
 72
     5
 11
2944.9627041846138
 21
47.922488065357683
 31
0.0
  0
TEXT
  5
468A
  8
OVERLAY-A3
 10
3474.8591236007969
 20
128.8934315067097
 30
0.0
 40
20.0
  1
Drawing No.
  7
SIMPLEX
 72
     2
 11
3649.1448378865111
 21
128.8934315067097
 31
0.0
  0
LINE
  5
468B
  8
OVERLAY-A3
 10
1431.308727170408
 20
0.0
 30
0.0
 11
3890.0
 21
0.0
 31
0.0
  0
LINE
  5
468C
  8
OVERLAY-A3
 10
3890.0
 20
0.0
 30
0.0
 11
3890.0
 21
2312.2118484624102
 31
0.0
  0
LINE
  5
468D
  8
OVERLAY-A3
 10
3890.0
 20
2312.2118484624102
 30
0.0
 11
1431.308727170408
 21
2312.2118484624102
 31
0.0
  0
LINE
  5
468E
  8
OVERLAY-A3
 10
1431.308727170408
 20
2312.2118484624102
 30
0.0
 11
1431.308727170408
 21
0.0
 31
0.0
  0
TEXT
  5
468F
  8
TEXT
 10
2986.676368294954
 20
46.652006034467362
 30
0.0
 40
30.0
  1
1.10
  7
TITLE3
  0
TEXT
  5
4690
  8
TEXT
 10
3488.739985083329
 20
55.88213843435733
 30
0.0
 40
45.0
  1
IMD95
  7
TITLE3
  0
TEXT
  5
4691
  8
TEXT
 10
3184.1041436014611
 20
219.3874003041025
 30
0.0
 40
56.25
  1
IMD95
  7
TITLE3
  0
LINE
  5
4692
  8
OUTLINE
 10
1692.0053778947649
 20
793.01032472043369
 30
0.0
 11
1692.005377894764
 21
676.05381830717045
 31
0.0
  0
LINE
  5
4693
  8
OUTLINE
 10
2319.0950666426061
 20
812.5103247204338
 30
0.0
 11
2319.0950666426061
 21
897.55381830716976
 31
0.0
  0
TEXT
  5
4694
  8
TEXT
 10
2830.4476858738672
 20
726.09385311276174
 30
0.0
 40
56.25
  1
IMD95
  7
TITLE3
  0
TEXT
  5
4695
  8
TEXT
 10
2830.4476858738672
 20
1701.1844223249871
 30
0.0
 40
56.25
  1
IMD95
  7
TITLE3
  0
TEXT
  5
4696
  8
TEXT
 10
1846.174891923861
 20
726.09385311276174
 30
0.0
 40
56.25
  1
IMD95
  7
TITLE3
  0
INSERT
  5
4697
  8
OUTLINE
  2
NEW_BLOCK0
 10
1463.3072501230099
 20
14.87888377612671
 30
0.0
  0
LINE
  5
4698
  8
DIM
 10
2947.5194540794892
 20
1492.411523069964
 30
0.0
 11
2918.9434577278248
 21
1445.407441577644
 31
0.0
  0
LINE
  5
4699
  8
DIM
 10
2947.5194540794892
 20
1492.411523069964
 30
0.0
 11
2976.095450431153
 21
1445.407441577644
 31
0.0
  0
LINE
  5
469A
  8
DIM
 10
2918.9434577278248
 20
1445.407441577644
 30
0.0
 11
2936.692440281457
 21
1445.407441577644
 31
0.0
  0
LINE
  5
469B
  8
DIM
 10
2936.692440281457
 20
1445.407441577644
 30
0.0
 11
2936.692440281457
 21
1390.4215388701
 31
0.0
  0
LINE
  5
469C
  8
DIM
 10
2958.3464678775231
 20
1445.407441577644
 30
0.0
 11
2958.3464678775231
 21
1390.4215388701
 31
0.0
  0
LINE
  5
469D
  8
DIM
 10
2936.692440281457
 20
1390.4215388701
 30
0.0
 11
2958.3464678775231
 21
1390.4215388701
 31
0.0
  0
LINE
  5
469E
  8
DIM
 10
2976.095450431153
 20
1445.407441577644
 30
0.0
 11
2958.3464678775231
 21
1445.407441577644
 31
0.0
  0
LINE
  5
469F
  8
DIM
 10
2992.0844108401188
 20
2078.677824051073
 30
0.0
 11
2992.0844108401188
 21
2023.6919213435281
 31
0.0
  0
LINE
  5
46A0
  8
DIM
 10
3013.738438436184
 20
2078.677824051073
 30
0.0
 11
3013.738438436184
 21
2023.6919213435281
 31
0.0
  0
LINE
  5
46A1
  8
DIM
 10
2992.0844108401188
 20
2023.6919213435281
 30
0.0
 11
3013.738438436184
 21
2023.6919213435281
 31
0.0
  0
LINE
  5
46A2
  8
DIM
 10
3002.9114246381509
 20
2125.6819055433921
 30
0.0
 11
2974.3354282864871
 21
2078.677824051073
 31
0.0
  0
LINE
  5
46A3
  8
DIM
 10
2974.3354282864871
 20
2078.677824051073
 30
0.0
 11
2992.0844108401188
 21
2078.677824051073
 31
0.0
  0
LINE
  5
46A4
  8
DIM
 10
3031.4874209898148
 20
2078.677824051073
 30
0.0
 11
3013.738438436184
 21
2078.677824051073
 31
0.0
  0
LINE
  5
46A5
  8
DIM
 10
3002.9114246381509
 20
2125.6819055433921
 30
0.0
 11
3031.4874209898148
 21
2078.677824051073
 31
0.0
  0
LINE
  5
46AD
  8
CLEAR
 10
2090.7266326151889
 20
1988.9501993108929
 30
0.0
 11
2090.7266326151889
 21
1483.950199310895
 31
0.0
  0
LINE
  5
46AE
  8
CLEAR
 10
3835.7266326151889
 20
1483.950199310895
 30
0.0
 11
3835.726632615188
 21
1988.950199310894
 31
0.0
  0
LINE
  5
46B4
  8
CLEAR
 10
2590.7266326151889
 20
1988.950199310894
 30
0.0
 11
2090.7266326151889
 21
1988.9501993108929
 31
0.0
  0
LINE
  5
46B5
  8
CLEAR
 10
2590.7266326151889
 20
1483.950199310895
 30
0.0
 11
2090.7266326151889
 21
1483.950199310895
 31
0.0
  0
LINE
  5
46B6
  8
CLEAR
 10
3310.726632615188
 20
1988.950199310894
 30
0.0
 11
3835.726632615188
 21
1988.950199310894
 31
0.0
  0
LINE
  5
46B7
  8
CLEAR
 10
3310.7266326151889
 20
1483.950199310895
 30
0.0
 11
3835.7266326151889
 21
1483.950199310895
 31
0.0
  0
TEXT
  5
46BE
  8
TEXT
  6
PHANTOM2
 10
2142.2935747528231
 20
1644.2615257406251
 30
0.0
 40
30.0
  1
500 min 
 50
90.0
  7
TITLE3
  0
TEXT
  5
46BF
  8
TEXT
  6
PHANTOM2
 10
2193.7221461813938
 20
1622.769993578778
 30
0.0
 40
30.0
  1
CLEARANCE
 50
90.0
  7
TITLE3
  0
TEXT
  5
46C0
  8
TEXT
  6
PHANTOM2
 10
3760.4187955713751
 20
1644.2615257406251
 30
0.0
 40
30.0
  1
500 min 
 50
90.0
  7
TITLE3
  0
TEXT
  5
46C1
  8
TEXT
  6
PHANTOM2
 10
3811.8473669999471
 20
1622.769993578778
 30
0.0
 40
30.0
  1
CLEARANCE
 50
90.0
  7
TITLE3
  0
ENDSEC
  0
EOF
