  0
SECTION
  2
HEADER
  9
$ACADVER
  1
AC1009
  9
$INSBASE
 10
0.0
 20
0.0
 30
0.0
  9
$EXTMIN
 10
735.27073939116224
 20
0.0
 30
0.0
  9
$EXTMAX
 10
4862.5
 20
3325.0
 30
0.0
  9
$LIMMIN
 10
0.0
 20
0.0
  9
$LIMMAX
 10
3890.0
 20
2660.0
  9
$ORTHOMODE
 70
     1
  9
$REGENMODE
 70
     1
  9
$FILLMODE
 70
     1
  9
$QTEXTMODE
 70
     0
  9
$MIRRTEXT
 70
     0
  9
$DRAGMODE
 70
     2
  9
$LTSCALE
 40
100.0
  9
$OSMODE
 70
   512
  9
$ATTMODE
 70
     1
  9
$TEXTSIZE
 40
30.0
  9
$TRACEWID
 40
0.05
  9
$TEXTSTYLE
  7
TITLE3
  9
$CLAYER
  8
DIM
  9
$CELTYPE
  6
BYLAYER
  9
$CECOLOR
 62
   256
  9
$DIMSCALE
 40
1.0
  9
$DIMASZ
 40
30.0
  9
$DIMEXO
 40
20.0
  9
$DIMDLI
 40
0.38
  9
$DIMRND
 40
0.0
  9
$DIMDLE
 40
0.0
  9
$DIMEXE
 40
20.0
  9
$DIMTP
 40
0.0
  9
$DIMTM
 40
0.0
  9
$DIMTXT
 40
30.0
  9
$DIMCEN
 40
0.09
  9
$DIMTSZ
 40
0.0
  9
$DIMTOL
 70
     0
  9
$DIMLIM
 70
     0
  9
$DIMTIH
 70
     0
  9
$DIMTOH
 70
     0
  9
$DIMSE1
 70
     0
  9
$DIMSE2
 70
     0
  9
$DIMTAD
 70
     0
  9
$DIMZIN
 70
     0
  9
$DIMBLK
  1

  9
$DIMASO
 70
     0
  9
$DIMSHO
 70
     0
  9
$DIMPOST
  1

  9
$DIMAPOST
  1

  9
$DIMALT
 70
     0
  9
$DIMALTD
 70
     2
  9
$DIMALTF
 40
25.399999999999999
  9
$DIMLFAC
 40
1.0
  9
$DIMTOFL
 70
     0
  9
$DIMTVP
 40
0.0
  9
$DIMTIX
 70
     0
  9
$DIMSOXD
 70
     0
  9
$DIMSAH
 70
     0
  9
$DIMBLK1
  1

  9
$DIMBLK2
  1

  9
$DIMSTYLE
  2
STANDARD
  9
$DIMCLRD
 70
    52
  9
$DIMCLRE
 70
    52
  9
$DIMCLRT
 70
    50
  9
$DIMTFAC
 40
1.0
  9
$DIMGAP
 40
20.0
  9
$LUNITS
 70
     2
  9
$LUPREC
 70
     2
  9
$SKETCHINC
 40
0.1
  9
$FILLETRAD
 40
0.0
  9
$AUNITS
 70
     0
  9
$AUPREC
 70
     2
  9
$MENU
  1
\acad12\support\cnc
  9
$ELEVATION
 40
0.0
  9
$PELEVATION
 40
0.0
  9
$THICKNESS
 40
0.0
  9
$LIMCHECK
 70
     0
  9
$BLIPMODE
 70
     0
  9
$CHAMFERA
 40
40.0
  9
$CHAMFERB
 40
40.0
  9
$SKPOLY
 70
     0
  9
$TDCREATE
 40
2451227.6529396991
  9
$TDUPDATE
 40
2452929.6639243281
  9
$TDINDWG
 40
0.3110885648
  9
$TDUSRTIMER
 40
0.3110883796
  9
$USRTIMER
 70
     1
  9
$ANGBASE
 50
0.0
  9
$ANGDIR
 70
     0
  9
$PDMODE
 70
     2
  9
$PDSIZE
 40
10.0
  9
$PLINEWID
 40
0.0
  9
$COORDS
 70
     2
  9
$SPLFRAME
 70
     0
  9
$SPLINETYPE
 70
     6
  9
$SPLINESEGS
 70
     8
  9
$ATTDIA
 70
     0
  9
$ATTREQ
 70
     1
  9
$HANDLING
 70
 22529
  9
$HANDSEED
  5
11140
  9
$SURFTAB1
 70
     6
  9
$SURFTAB2
 70
     6
  9
$SURFTYPE
 70
     6
  9
$SURFU
 70
     6
  9
$SURFV
 70
     6
  9
$UCSNAME
  2

  9
$UCSORG
 10
0.0
 20
0.0
 30
0.0
  9
$UCSXDIR
 10
1.0
 20
0.0
 30
0.0
  9
$UCSYDIR
 10
0.0
 20
1.0
 30
0.0
  9
$PUCSNAME
  2

  9
$PUCSORG
 10
0.0
 20
0.0
 30
0.0
  9
$PUCSXDIR
 10
1.0
 20
0.0
 30
0.0
  9
$PUCSYDIR
 10
0.0
 20
1.0
 30
0.0
  9
$USERI1
 70
     0
  9
$USERI2
 70
     0
  9
$USERI3
 70
     0
  9
$USERI4
 70
     0
  9
$USERI5
 70
     0
  9
$USERR1
 40
0.0
  9
$USERR2
 40
0.0
  9
$USERR3
 40
0.0
  9
$USERR4
 40
0.0
  9
$USERR5
 40
0.0
  9
$WORLDVIEW
 70
     1
  9
$SHADEDGE
 70
     3
  9
$SHADEDIF
 70
    70
  9
$TILEMODE
 70
     1
  9
$MAXACTVP
 70
    16
  9
$PLIMCHECK
 70
     0
  9
$PEXTMIN
 10
1.0000000000000000E+020
 20
1.0000000000000000E+020
 30
1.0000000000000000E+020
  9
$PEXTMAX
 10
-1.0000000000000000E+020
 20
-1.0000000000000000E+020
 30
-1.0000000000000000E+020
  9
$PLIMMIN
 10
0.0
 20
0.0
  9
$PLIMMAX
 10
12.0
 20
9.0
  9
$UNITMODE
 70
     0
  9
$VISRETAIN
 70
     0
  9
$PLINEGEN
 70
     0
  9
$PSLTSCALE
 70
     0
  0
ENDSEC
  0
SECTION
  2
TABLES
  0
TABLE
  2
VPORT
 70
     2
  0
VPORT
  2
*ACTIVE
 70
     0
 10
0.0
 20
0.0
 11
1.0
 21
1.0
 12
2798.8905070496739
 22
1662.500007741618
 13
0.0
 23
0.0
 14
25.0
 24
25.0
 15
100.0
 25
100.0
 16
0.0
 26
0.0
 36
1.0
 17
0.0
 27
0.0
 37
0.0
 40
3361.5439576531799
 41
1.5912408759124079
 42
50.0
 43
0.0
 44
0.0
 50
0.0
 51
0.0
 71
     0
 72
   100
 73
     1
 74
     0
 75
     0
 76
     0
 77
     0
 78
     2
  0
ENDTAB
  0
TABLE
  2
LTYPE
 70
     2
  0
LTYPE
  2
CONTINUOUS
 70
     0
  3
Solid line
 72
    65
 73
     0
 40
0.0
  0
LTYPE
  2
PHANTOM2
 70
     0
  3
Phantom (.5x) ___ _ _ ___ _ _ ___ _ _ ___ _ _
 72
    65
 73
     6
 40
1.25
 49
0.625
 49
-0.125
 49
0.125
 49
-0.125
 49
0.125
 49
-0.125
  0
ENDTAB
  0
TABLE
  2
LAYER
 70
     6
  0
LAYER
  2
0
 70
     0
 62
     7
  6
CONTINUOUS
  0
LAYER
  2
DIM
 70
     0
 62
    50
  6
CONTINUOUS
  0
LAYER
  2
OVERLAY-A3
 70
     0
 62
     7
  6
CONTINUOUS
  0
LAYER
  2
TEXT
 70
     0
 62
   100
  6
CONTINUOUS
  0
LAYER
  2
OUTLINE
 70
     0
 62
     7
  6
CONTINUOUS
  0
LAYER
  2
CLEAR
 70
     0
 62
     1
  6
PHANTOM2
  0
ENDTAB
  0
TABLE
  2
STYLE
 70
     3
  0
STYLE
  2
STANDARD
 70
     0
 40
0.0
 41
1.0
 50
0.0
 71
     0
 42
0.2
  3
txt
  4

  0
STYLE
  2
TITLE3
 70
     0
 40
30.0
 41
1.0
 50
0.0
 71
     0
 42
30.0
  3
SIMPLEX
  4

  0
STYLE
  2
SIMPLEX
 70
     0
 40
40.0
 41
1.0
 50
0.0
 71
     0
 42
25.0
  3
SIMPLEX
  4

  0
ENDTAB
  0
TABLE
  2
VIEW
 70
     0
  0
ENDTAB
  0
TABLE
  2
UCS
 70
     0
  0
ENDTAB
  0
TABLE
  2
APPID
 70
     1
  0
APPID
  2
ACAD
 70
     0
  0
ENDTAB
  0
TABLE
  2
DIMSTYLE
 70
     1
  0
DIMSTYLE
  2
STANDARD
 70
     0
  3

  4

  5

  6

  7

 40
1.0
 41
0.18
 42
0.0625
 43
0.38
 44
0.18
 45
0.0
 46
0.0
 47
0.0
 48
0.0
140
0.18
141
0.09
142
0.0
143
25.399999999999999
144
1.0
145
0.0
146
1.0
147
0.09
 71
     0
 72
     0
 73
     1
 74
     1
 75
     0
 76
     0
 77
     0
 78
     0
170
     0
171
     2
172
     0
173
     0
174
     0
175
     0
176
     0
177
     0
178
     0
  0
ENDTAB
  0
ENDSEC
  0
SECTION
  2
BLOCKS
  0
BLOCK
  8
0
  2
$MODEL_SPACE
 70
     0
 10
0.0
 20
0.0
 30
0.0
  3
$MODEL_SPACE
  1

  0
ENDBLK
  5
10DE1
  8
0
  0
BLOCK
 67
     1
  8
0
  2
$PAPER_SPACE
 70
     0
 10
0.0
 20
0.0
 30
0.0
  3
$PAPER_SPACE
  1

  0
ENDBLK
  5
10DDD
 67
     1
  8
0
  0
BLOCK
  8
0
  2
NEW_BLOCK
 70
     0
 10
0.0
 20
0.0
 30
0.0
  3
NEW_BLOCK
  1

  0
TEXT
  5
10DF7
  8
TEXT
 10
27.285946821803002
 20
25.27142175952417
 30
0.0
 40
40.0
  1
available on request
  7
TITLE3
  0
TEXT
  5
10DF8
  8
TEXT
 10
27.285946821803002
 20
93.842850330952714
 30
0.0
 40
40.0
  1
Certified dimensions
  7
TITLE3
  0
TEXT
  5
10DF9
  8
TEXT
 10
27.285946821803002
 20
162.4142789023812
 30
0.0
 40
40.0
  1
without notice or obligation.
  7
TITLE3
  0
TEXT
  5
10DFA
  8
TEXT
 10
27.285946821803002
 20
230.9857074738097
 30
0.0
 40
40.0
  1
specifications at any time
  7
TITLE3
  0
TEXT
  5
10DFB
  8
TEXT
 10
27.285946821803002
 20
299.55713604523839
 30
0.0
 40
40.0
  1
the right to change 
  7
TITLE3
  0
TEXT
  5
10DFC
  8
TEXT
 10
27.285946821803002
 20
436.69999318809528
 30
0.0
 40
40.0
  1
NOTE
  7
TITLE3
  0
TEXT
  5
10DFD
  8
TEXT
 10
27.285946821803002
 20
368.12856461666672
 30
0.0
 40
40.0
  1
The manufacturer reserves
  7
TITLE3
  0
ENDBLK
  5
10DFE
  8
0
  0
BLOCK
  8
0
  2
NEW_BLOCK0
 70
     0
 10
0.0
 20
0.0
 30
0.0
  3
NEW_BLOCK0
  1

  0
INSERT
  5
10E01
  8
DIM
  2
NEW_BLOCK
 10
13.048098169647799
 20
6.0725618626865971
 30
0.0
 41
0.7000000000000455
 42
0.6999999999999993
 43
0.7
  0
ENDBLK
  5
10E02
  8
0
  0
ENDSEC
  0
SECTION
  2
ENTITIES
  0
TEXT
  5
11041
  8
TEXT
 10
3686.9326486882369
 20
137.5
 30
0.0
 40
37.5
  1
16.10.03
 41
0.888888888888889
  7
TITLE3
 72
     5
 11
3886.9326486882369
 21
137.5
 31
0.0
  0
LINE
  5
11042
  8
OUTLINE
 10
2574.244009128332
 20
3140.5354074436868
 30
0.0
 11
3604.2440091283329
 21
3140.5354074436868
 31
0.0
  0
LINE
  5
11043
  8
OUTLINE
 10
2281.7460298650249
 20
3074.3367884712479
 30
0.0
 11
3895.5419883916402
 21
3074.3367884712479
 31
0.0
  0
LINE
  5
11044
  8
OUTLINE
 10
2312.9475145273718
 20
3105.5367884712468
 30
0.0
 11
3864.3419883916408
 21
3105.5367884712468
 31
0.0
  0
LINE
  5
11045
  8
OUTLINE
 10
2375.144009128333
 20
2408.1367884712458
 30
0.0
 11
3802.144009128333
 21
2408.1367884712481
 31
0.0
  0
LINE
  5
11046
  8
OUTLINE
 10
2312.546029865026
 20
2443.1367884712472
 30
0.0
 11
3863.141988391641
 21
2443.1367884712458
 31
0.0
  0
LINE
  5
11047
  8
OUTLINE
 10
2250.5460298650269
 20
2505.1367884712472
 30
0.0
 11
2250.5460298650269
 21
3043.1382730629489
 31
0.0
  0
LINE
  5
11048
  8
OUTLINE
 10
2281.7460298650249
 20
2475.5367884712468
 30
0.0
 11
2281.7460298650249
 21
3074.3367884712479
 31
0.0
  0
LINE
  5
11049
  8
OUTLINE
 10
2375.144009128333
 20
2408.1367884712458
 30
0.0
 11
2375.144009128333
 21
2443.1367884712472
 31
0.0
  0
LINE
  5
1104A
  8
OUTLINE
 10
2574.244009128332
 20
3105.5367884712468
 30
0.0
 11
2574.244009128332
 21
3140.5354074436868
 31
0.0
  0
LINE
  5
1104B
  8
OUTLINE
 10
3895.5419883916388
 20
2475.5367884712468
 30
0.0
 11
3895.5419883916402
 21
3074.3367884712479
 31
0.0
  0
LINE
  5
1104C
  8
OUTLINE
 10
3927.9419883916412
 20
2507.9367884712501
 30
0.0
 11
3927.9419883916412
 21
3041.9367884712478
 31
0.0
  0
LINE
  5
1104D
  8
OUTLINE
 10
3802.144009128333
 20
2408.1367884712458
 30
0.0
 11
3802.144009128333
 21
2443.1367884712472
 31
0.0
  0
LINE
  5
1104E
  8
OUTLINE
 10
3604.2440091283338
 20
3105.5367884712482
 30
0.0
 11
3604.2440091283329
 21
3140.5354074436868
 31
0.0
  0
LINE
  5
1104F
  8
OUTLINE
  6
CONTINUOUS
 10
2216.1440091283321
 20
2731.0721684129012
 30
0.0
 11
2250.5460298650269
 21
2731.0721684128998
 31
0.0
  0
LINE
  5
11050
  8
OUTLINE
  6
CONTINUOUS
 10
2216.1440091283321
 20
2703.0721684129012
 30
0.0
 11
2250.5460298650269
 21
2703.0721684128998
 31
0.0
  0
LINE
  5
11051
  8
OUTLINE
  6
CONTINUOUS
 10
2216.1440091283321
 20
2703.0721684129012
 30
0.0
 11
2216.1440091283321
 21
2731.0721684129012
 31
0.0
  0
LINE
  5
11052
  8
OUTLINE
 10
2278.946029865026
 20
2410.5367884712459
 30
0.0
 11
2278.946029865026
 21
2476.736788471248
 31
0.0
  0
LINE
  5
11053
  8
OUTLINE
 10
2326.946029865026
 20
2410.5367884712459
 30
0.0
 11
2326.946029865026
 21
2443.1367884712472
 31
0.0
  0
LINE
  5
11054
  8
OUTLINE
 10
2326.946029865026
 20
2410.5367884712459
 30
0.0
 11
2278.946029865026
 21
2410.5367884712459
 31
0.0
  0
CIRCLE
  5
11055
  8
OUTLINE
 10
2302.9460298650251
 20
2430.5367884712459
 30
0.0
 40
9.0
  0
LINE
  5
11056
  8
OUTLINE
 10
2281.7460298650249
 20
2475.5367884712468
 30
0.0
 11
3895.5419883916388
 21
2475.5367884712468
 31
0.0
  0
LINE
  5
11057
  8
OUTLINE
 10
3851.5419883916411
 20
2410.5367884712459
 30
0.0
 11
3851.541988391642
 21
2443.1367884712472
 31
0.0
  0
LINE
  5
11058
  8
OUTLINE
 10
3899.5419883916411
 20
2410.5367884712459
 30
0.0
 11
3899.5419883916411
 21
2479.53678847125
 31
0.0
  0
LINE
  5
11059
  8
OUTLINE
 10
3851.541988391642
 20
2410.5367884712459
 30
0.0
 11
3899.5419883916411
 21
2410.5367884712459
 31
0.0
  0
CIRCLE
  5
1105A
  8
OUTLINE
 10
3875.541988391642
 20
2430.5367884712459
 30
0.0
 40
9.0
  0
LINE
  5
1105B
  8
OUTLINE
 10
2326.946029865026
 20
3138.1367884712458
 30
0.0
 11
2326.946029865026
 21
3105.5367884712468
 31
0.0
  0
LINE
  5
1105C
  8
OUTLINE
 10
2278.946029865026
 20
3138.1367884712458
 30
0.0
 11
2278.946029865026
 21
3071.536921703836
 31
0.0
  0
LINE
  5
1105D
  8
OUTLINE
 10
2326.946029865026
 20
3138.1367884712458
 30
0.0
 11
2278.946029865026
 21
3138.1367884712458
 31
0.0
  0
CIRCLE
  5
1105E
  8
OUTLINE
 10
2302.9460298650251
 20
3118.1367884712472
 30
0.0
 40
9.0
  0
LINE
  5
1105F
  8
OUTLINE
 10
3899.5419883916411
 20
3138.1367884712481
 30
0.0
 11
3899.5419883916411
 21
3070.336788471247
 31
0.0
  0
LINE
  5
11060
  8
OUTLINE
 10
3851.5419883916411
 20
3138.1367884712481
 30
0.0
 11
3851.541988391642
 21
3105.5367884712482
 31
0.0
  0
LINE
  5
11061
  8
OUTLINE
 10
3851.541988391642
 20
3138.1367884712481
 30
0.0
 11
3899.5419883916411
 21
3138.1367884712481
 31
0.0
  0
CIRCLE
  5
11062
  8
OUTLINE
 10
3875.541988391642
 20
3118.1367884712481
 30
0.0
 40
9.0
  0
LINE
  5
11063
  8
DIM
 62
    52
 10
2302.9460298650251
 20
2410.5367884712459
 30
0.0
 11
2302.9460298650251
 21
2258.5225949869441
 31
0.0
  0
LINE
  5
11064
  8
DIM
 62
    52
 10
3875.541988391642
 20
2410.5367884712459
 30
0.0
 11
3875.541988391642
 21
2258.5225949869441
 31
0.0
  0
LINE
  5
11065
  8
DIM
 62
    52
 10
2332.946029865026
 20
2278.5225949869441
 30
0.0
 11
2979.3331625078072
 21
2278.5225949869441
 31
0.0
  0
LINE
  5
11066
  8
DIM
 62
    52
 10
3845.541988391642
 20
2278.5225949869441
 30
0.0
 11
3139.1824279178768
 21
2278.5225949869441
 31
0.0
  0
SOLID
  5
11067
  8
DIM
 62
    52
 10
2332.946029865026
 20
2283.5225949869441
 30
0.0
 11
2332.946029865026
 21
2273.5225949869441
 31
0.0
 12
2302.9460298650251
 22
2278.5225949869441
 32
0.0
 13
2302.9460298650251
 23
2278.5225949869441
 33
0.0
  0
SOLID
  5
11068
  8
DIM
 62
    52
 10
3845.541988391642
 20
2283.5225949869441
 30
0.0
 11
3845.541988391642
 21
2273.5225949869441
 31
0.0
 12
3875.541988391642
 22
2278.5225949869441
 32
0.0
 13
3875.541988391642
 23
2278.5225949869441
 33
0.0
  0
TEXT
  5
11069
  8
DIM
 62
    50
 10
3013.5219670596739
 20
2263.5225949869441
 30
0.0
 40
30.0
  1
1573
  7
TITLE3
 72
     4
 11
3063.521967059673
 21
2278.5225949869441
 31
0.0
  0
LINE
  5
1106A
  8
DIM
 62
    52
 10
4000.6236120427402
 20
2505.5367884712482
 30
0.0
 11
4000.6236120427402
 21
2680.6510741855318
 31
0.0
  0
LINE
  5
1106B
  8
DIM
 62
    52
 10
4097.9175261113123
 20
2460.5367884712482
 30
0.0
 11
4097.9175261113123
 21
2689.377538509757
 31
0.0
  0
SOLID
  5
1106C
  8
DIM
 62
    52
 10
4092.9175261113128
 20
2460.5367884712482
 30
0.0
 11
4102.9175261113123
 21
2460.5367884712482
 31
0.0
 12
4097.9175261113123
 22
2430.5367884712459
 32
0.0
 13
4097.9175261113123
 23
2430.5367884712459
 33
0.0
  0
SOLID
  5
1106D
  8
DIM
 62
    52
 10
3995.6236120427411
 20
2505.5367884712482
 30
0.0
 11
4005.6236120427411
 21
2505.5367884712482
 31
0.0
 12
4000.6236120427402
 22
2475.5367884712468
 32
0.0
 13
4000.6236120427402
 23
2475.5367884712468
 33
0.0
  0
TEXT
  5
1106E
  8
DIM
 62
    50
 10
4015.6236120427402
 20
2736.365359899818
 30
0.0
 40
30.0
  1
600
 50
90.0
  7
TITLE3
 72
     4
 11
4000.6236120427402
 21
2774.9367884712469
 31
0.0
  0
LINE
  5
1106F
  8
DIM
 62
    52
 10
4000.6236120427402
 20
3044.336788471247
 30
0.0
 11
4000.6236120427402
 21
2869.2225027569621
 31
0.0
  0
SOLID
  5
11070
  8
DIM
 62
    52
 10
3995.6236120427411
 20
3044.336788471247
 30
0.0
 11
4005.6236120427411
 21
3044.336788471247
 31
0.0
 12
4000.6236120427402
 22
3074.336788471247
 32
0.0
 13
4000.6236120427402
 23
3074.336788471247
 33
0.0
  0
LINE
  5
11071
  8
DIM
 62
    52
 10
4097.9175261113123
 20
3088.1367884712481
 30
0.0
 11
4097.9175261113123
 21
2852.2045855606839
 31
0.0
  0
SOLID
  5
11072
  8
DIM
 62
    52
 10
4092.9175261113128
 20
3088.1367884712481
 30
0.0
 11
4102.9175261113123
 21
3088.1367884712481
 31
0.0
 12
4097.9175261113123
 22
3118.1367884712481
 32
0.0
 13
4097.9175261113123
 23
3118.1367884712481
 33
0.0
  0
LINE
  5
11073
  8
OUTLINE
 10
3927.9419883916412
 20
2507.9367884712501
 30
0.0
 11
3863.141988391641
 21
2443.1367884712458
 31
0.0
  0
LINE
  5
11074
  8
OUTLINE
 10
3927.9419883916412
 20
3041.9367884712478
 30
0.0
 11
3864.3419883916408
 21
3105.5367884712468
 31
0.0
  0
LINE
  5
11075
  8
DIM
 62
    52
 10
3890.6910715900872
 20
2430.5367884712459
 30
0.0
 11
4117.9175261113123
 21
2430.5367884712459
 31
0.0
  0
LINE
  5
11076
  8
DIM
 62
    52
 10
3890.4690156602419
 20
3118.1367884712481
 30
0.0
 11
4117.9175261113123
 21
3118.1367884712481
 31
0.0
  0
LINE
  5
11077
  8
OUTLINE
 10
2312.546029865026
 20
2443.1367884712472
 30
0.0
 11
2250.5460298650269
 21
2505.1367884712472
 31
0.0
  0
LINE
  5
11078
  8
OUTLINE
 10
2250.5460298650269
 20
3043.1382730629489
 30
0.0
 11
2312.9475145273718
 21
3105.5367884712468
 31
0.0
  0
LINE
  5
11079
  8
0
 10
3902.546029865026
 20
1059.59924215971
 30
0.0
 11
3902.546029865026
 21
1639.555748572973
 31
0.0
  0
LINE
  5
1107A
  8
0
 10
3928.546029865026
 20
1751.59924215971
 30
0.0
 11
3928.546029865026
 21
1760.59924215971
 31
0.0
  0
LINE
  5
1107B
  8
0
 10
3928.546029865026
 20
1760.59924215971
 30
0.0
 11
2250.5460298650269
 21
1760.5992421597109
 31
0.0
  0
LINE
  5
1107C
  8
0
 10
2276.5460298650269
 20
1059.599242159712
 30
0.0
 11
2276.5460298650269
 21
1639.555748572973
 31
0.0
  0
LINE
  5
1107D
  8
0
 10
2250.5460298650269
 20
1751.5992421597109
 30
0.0
 11
2250.5460298650269
 21
1760.5992421597109
 31
0.0
  0
LINE
  5
1107E
  8
0
 10
3912.546029865026
 20
1059.59924215971
 30
0.0
 11
2266.5460298650269
 21
1059.599242159712
 31
0.0
  0
LINE
  5
1107F
  8
0
 10
2371.0460298650269
 20
1689.09924215971
 30
0.0
 11
3806.046029865026
 21
1689.09924215971
 31
0.0
  0
LINE
  5
11080
  8
0
 10
2371.046029865026
 20
1140.09924215971
 30
0.0
 11
3806.046029865026
 21
1140.09924215971
 31
0.0
  0
LINE
  5
11081
  8
0
 10
2371.0460298650269
 20
1689.09924215971
 30
0.0
 11
2371.046029865026
 21
1140.09924215971
 31
0.0
  0
LINE
  5
11082
  8
0
 10
3806.046029865026
 20
1689.09924215971
 30
0.0
 11
3806.046029865026
 21
1140.09924215971
 31
0.0
  0
LINE
  5
11083
  8
0
 10
3911.546029865026
 20
1716.555748572973
 30
0.0
 11
3911.546029865026
 21
1646.5557485729751
 31
0.0
  0
LINE
  5
11084
  8
0
 10
3864.546029865026
 20
1716.555748572973
 30
0.0
 11
3864.546029865026
 21
1646.5557485729751
 31
0.0
  0
LINE
  5
11085
  8
0
 10
3864.546029865026
 20
1646.5557485729751
 30
0.0
 11
3911.546029865026
 21
1646.5557485729751
 31
0.0
  0
LINE
  5
11086
  8
0
 10
3905.5460298650269
 20
1639.555748572973
 30
0.0
 11
3870.546029865026
 21
1639.555748572973
 31
0.0
  0
LINE
  5
11087
  8
0
 10
3870.546029865026
 20
1639.555748572973
 30
0.0
 11
3870.546029865026
 21
1646.5557485729751
 31
0.0
  0
LINE
  5
11088
  8
0
 10
3905.5460298650269
 20
1639.555748572973
 30
0.0
 11
3905.5460298650269
 21
1646.5557485729739
 31
0.0
  0
LINE
  5
11089
  8
0
 10
3864.546029865026
 20
1716.555748572973
 30
0.0
 11
3911.546029865026
 21
1716.555748572973
 31
0.0
  0
LINE
  5
1108A
  8
0
 10
2267.546029865026
 20
1716.555748572973
 30
0.0
 11
2267.546029865026
 21
1646.5557485729751
 31
0.0
  0
LINE
  5
1108B
  8
0
 10
2314.546029865026
 20
1716.555748572973
 30
0.0
 11
2314.546029865026
 21
1646.5557485729751
 31
0.0
  0
LINE
  5
1108C
  8
0
 10
2308.546029865026
 20
1639.555748572973
 30
0.0
 11
2273.546029865026
 21
1639.555748572973
 31
0.0
  0
LINE
  5
1108D
  8
0
 10
2267.546029865026
 20
1646.5557485729751
 30
0.0
 11
2314.546029865026
 21
1646.5557485729751
 31
0.0
  0
LINE
  5
1108E
  8
0
 10
2273.546029865026
 20
1639.555748572973
 30
0.0
 11
2273.546029865026
 21
1646.5557485729751
 31
0.0
  0
LINE
  5
1108F
  8
0
 10
2308.546029865026
 20
1639.555748572973
 30
0.0
 11
2308.546029865026
 21
1646.5557485729751
 31
0.0
  0
LINE
  5
11090
  8
0
 10
2267.546029865026
 20
1716.555748572973
 30
0.0
 11
2314.546029865026
 21
1716.555748572973
 31
0.0
  0
LINE
  5
11091
  8
0
 10
3902.546029865026
 20
1716.555748572973
 30
0.0
 11
3902.546029865026
 21
1760.59924215971
 31
0.0
  0
LINE
  5
11092
  8
0
 62
   111
 10
2276.5460298650269
 20
1716.555748572973
 30
0.0
 11
2276.5460298650269
 21
1760.5992421597109
 31
0.0
  0
LINE
  5
11093
  8
0
 10
2276.3850944959609
 20
1758.599242159712
 30
0.0
 11
2276.3850944959609
 21
1716.555748572973
 31
0.0
  0
TEXT
  5
11094
  8
DIM
 62
    50
 10
4078.6981807241332
 20
1377.9563850168529
 30
0.0
 40
30.0
  1
701
 50
90.0
  7
TITLE3
 72
     1
 11
4063.6981807241332
 21
1410.09924215971
 31
0.0
 73
     2
  0
LINE
  5
11095
  8
DIM
 62
    52
 10
3929.7401047356429
 20
1059.59924215971
 30
0.0
 11
4083.6981807241332
 21
1059.59924215971
 31
0.0
  0
LINE
  5
11096
  8
DIM
 62
    52
 10
4063.6981807241332
 20
1089.59924215971
 30
0.0
 11
4063.6981807241332
 21
1354.174620046753
 31
0.0
  0
SOLID
  5
11097
  8
DIM
 62
    52
 10
4058.6981807241341
 20
1089.59924215971
 30
0.0
 11
4068.6981807241318
 21
1089.59924215971
 31
0.0
 12
4063.6981807241332
 22
1059.59924215971
 32
0.0
 13
4063.6981807241332
 23
1059.59924215971
 33
0.0
  0
SOLID
  5
11098
  8
DIM
 62
    52
 10
4058.6981807241341
 20
1730.59924215971
 30
0.0
 11
4068.6981807241318
 21
1730.59924215971
 31
0.0
 12
4063.6981807241332
 22
1760.59924215971
 32
0.0
 13
4063.6981807241332
 23
1760.59924215971
 33
0.0
  0
LINE
  5
11099
  8
DIM
 62
    52
 10
3945.7401047356439
 20
1760.59924215971
 30
0.0
 11
4083.6981807241332
 21
1760.59924215971
 31
0.0
  0
LINE
  5
1109A
  8
DIM
 62
    52
 10
4063.6981807241332
 20
1730.59924215971
 30
0.0
 11
4063.6981807241332
 21
1466.5658914716851
 31
0.0
  0
LINE
  5
1109B
  8
DIM
 62
    52
 10
2250.5460298650269
 20
1780.5992421597109
 30
0.0
 11
2250.5460298650269
 21
1930.857455135889
 31
0.0
  0
LINE
  5
1109C
  8
DIM
 62
    52
 10
3928.546029865026
 20
1780.59924215971
 30
0.0
 11
3928.546029865026
 21
1930.857455135889
 31
0.0
  0
LINE
  5
1109D
  8
DIM
 62
    52
 10
2280.5460298650269
 20
1901.290830906632
 30
0.0
 11
3021.1433485163689
 21
1901.290830906632
 31
0.0
  0
LINE
  5
1109E
  8
DIM
 62
    52
 10
3898.5460298650269
 20
1901.290830906632
 30
0.0
 11
3170.9252822035301
 21
1901.290830906632
 31
0.0
  0
SOLID
  5
1109F
  8
DIM
 62
    52
 10
2280.5460298650269
 20
1906.290830906632
 30
0.0
 11
2280.5460298650269
 21
1896.290830906632
 31
0.0
 12
2250.5460298650269
 22
1901.290830906632
 32
0.0
 13
2250.5460298650269
 23
1901.290830906632
 33
0.0
  0
SOLID
  5
110A0
  8
DIM
 62
    52
 10
3898.5460298650269
 20
1906.290830906632
 30
0.0
 11
3898.5460298650269
 21
1896.290830906632
 31
0.0
 12
3928.546029865026
 22
1901.290830906632
 32
0.0
 13
3928.546029865026
 23
1901.290830906632
 33
0.0
  0
TEXT
  5
110A1
  8
DIM
 62
    50
 10
3039.5460298650269
 20
1886.290830906632
 30
0.0
 40
30.0
  1
1678
  7
TITLE3
 72
     1
 11
3089.5460298650269
 21
1901.290830906632
 31
0.0
 73
     2
  0
LINE
  5
110A2
  8
OVERLAY-A3
 10
735.27073939116224
 20
0.0
 30
0.0
 11
4862.5
 21
0.0
 31
0.0
  0
LINE
  5
110A3
  8
OVERLAY-A3
 10
735.27073939116224
 20
3325.0
 30
0.0
 11
735.27073939116224
 21
0.0
 31
0.0
  0
LINE
  5
110A4
  8
OVERLAY-A3
 10
3524.189411821435
 20
417.34368826831712
 30
0.0
 11
3524.189411821435
 21
26.053116060396849
 31
0.0
  0
LINE
  5
110A5
  8
OVERLAY-A3
 10
3524.189411821435
 20
26.053116060396849
 30
0.0
 11
4826.5974475743642
 21
26.053116060396849
 31
0.0
  0
LINE
  5
110A6
  8
OVERLAY-A3
 10
4826.9693315473014
 20
210.33581963568381
 30
0.0
 11
3524.189411821435
 21
210.33581963568381
 31
0.0
  0
LINE
  5
110A7
  8
OVERLAY-A3
 10
4271.1420975163674
 20
116.6407490868294
 30
0.0
 11
3524.189411821435
 21
116.6407490868294
 31
0.0
  0
TEXT
  5
110A8
  8
OVERLAY-A3
 10
3555.6040238788878
 20
59.903110081697371
 30
0.0
 40
25.0
  1
Scale
 41
1.3701747965659781
  7
SIMPLEX
 72
     5
 11
3681.2033802307692
 21
59.903110081697371
 31
0.0
  0
LINE
  5
110A9
  8
OVERLAY-A3
 10
4826.5974475743642
 20
417.34368826831712
 30
0.0
 11
3524.189411821435
 21
417.34368826831712
 31
0.0
  0
LINE
  5
110AA
  8
OVERLAY-A3
 10
4862.5
 20
0.0
 30
0.0
 11
4862.5
 21
3325.0
 31
0.0
  0
LINE
  5
110AB
  8
OVERLAY-A3
 10
4826.5974475743642
 20
26.053116060396849
 30
0.0
 11
4826.5974475743642
 21
417.34368826831712
 31
0.0
  0
LINE
  5
110AC
  8
OVERLAY-A3
 10
4668.1141874876994
 20
26.053116060396849
 30
0.0
 11
4668.1141874876994
 21
210.3358196356829
 31
0.0
  0
TEXT
  5
110AD
  8
OVERLAY-A3
 10
4682.6389904670032
 20
161.87912752926411
 30
0.0
 40
30.0
  1
Revision
 41
0.7812095035934841
  7
SIMPLEX
 72
     5
 11
4814.3285925013333
 21
161.87912752926411
 31
0.0
  0
TEXT
  5
110AE
  8
OVERLAY-A3
 10
4343.5739045009959
 20
161.11678938338699
 30
0.0
 40
25.0
  1
Drawing No.
  7
SIMPLEX
 72
     2
 11
4561.431047358139
 21
161.11678938338699
 31
0.0
  0
TEXT
  5
110AF
  8
OVERLAY-A3
 10
3557.6639530409948
 20
138.53901732512611
 30
0.0
 40
30.0
  1
Date
  7
SIMPLEX
  0
LINE
  5
110B0
  8
OVERLAY-A3
 10
4862.5
 20
3325.0
 30
0.0
 11
735.27073939116224
 21
3325.0
 31
0.0
  0
LINE
  5
110B1
  8
OVERLAY-A3
 10
4271.1420975163674
 20
26.053116060396849
 30
0.0
 11
4271.1420975163674
 21
210.3358196356829
 31
0.0
  0
LINE
  5
110B2
  8
0
 10
2276.5460298650269
 20
1136.5134981345591
 30
0.0
 11
2192.8440091283351
 21
1136.5134981345591
 31
0.0
  0
LINE
  5
110B3
  8
0
 10
2192.8440091283351
 20
1136.5134981345591
 30
0.0
 11
2190.8440091283319
 21
1138.5134981345591
 31
0.0
  0
LINE
  5
110B4
  8
0
 10
2276.5460298650269
 20
1178.01349813456
 30
0.0
 11
2192.8440091283351
 21
1178.01349813456
 31
0.0
  0
LINE
  5
110B5
  8
0
 10
2192.8440091283351
 20
1178.01349813456
 30
0.0
 11
2190.8440091283351
 21
1176.01349813456
 31
0.0
  0
LINE
  5
110B6
  8
0
 10
2190.8440091283319
 20
1425.13849813456
 30
0.0
 11
2190.8440091283319
 21
1462.6384981345609
 31
0.0
  0
LINE
  5
110B7
  8
0
 10
2190.8440091283319
 20
1461.3884981345609
 30
0.0
 11
2190.8440091283319
 21
1426.38849813456
 31
0.0
  0
LINE
  5
110B8
  8
0
 10
2190.8440091283319
 20
1427.89489813456
 30
0.0
 11
2190.8440091283319
 21
1459.88209813456
 31
0.0
  0
LINE
  5
110B9
  8
0
 10
2276.5460298650269
 20
1423.13849813456
 30
0.0
 11
2192.8440091283342
 21
1423.13849813456
 31
0.0
  0
LINE
  5
110BA
  8
0
 10
2192.8440091283342
 20
1423.13849813456
 30
0.0
 11
2190.8440091283319
 21
1425.13849813456
 31
0.0
  0
LINE
  5
110BB
  8
0
 10
2276.5460298650269
 20
1464.6384981345609
 30
0.0
 11
2192.8440091283342
 21
1464.6384981345609
 31
0.0
  0
LINE
  5
110BC
  8
0
 10
2192.8440091283342
 20
1464.6384981345609
 30
0.0
 11
2190.8440091283319
 21
1462.6384981345609
 31
0.0
  0
LINE
  5
110BD
  8
0
 10
2267.546029865026
 20
1695.3934981345601
 30
0.0
 11
2192.8440091283351
 21
1695.3934981345601
 31
0.0
  0
LINE
  5
110BE
  8
0
 10
2267.546029865026
 20
1653.893498134561
 30
0.0
 11
2192.8440091283351
 21
1653.893498134561
 31
0.0
  0
LINE
  5
110BF
  8
0
 10
2192.8440091283351
 20
1695.3934981345601
 30
0.0
 11
2190.8440091283319
 21
1693.393498134559
 31
0.0
  0
LINE
  5
110C0
  8
0
 10
2192.8440091283351
 20
1653.893498134561
 30
0.0
 11
2190.8440091283319
 21
1655.8934981345601
 31
0.0
  0
LINE
  5
110C1
  8
0
 10
2190.8440091283319
 20
1693.393498134559
 30
0.0
 11
2190.8440091283319
 21
1642.8716981345619
 31
0.0
  0
LINE
  5
110C2
  8
0
 10
2276.5460298650269
 20
1408.7684981345601
 30
0.0
 11
2192.8440091283351
 21
1408.7684981345601
 31
0.0
  0
LINE
  5
110C3
  8
0
 10
2276.5460298650269
 20
1367.268498134559
 30
0.0
 11
2192.8440091283351
 21
1367.268498134559
 31
0.0
  0
LINE
  5
110C4
  8
0
 10
2192.8440091283351
 20
1408.7684981345601
 30
0.0
 11
2190.8440091283351
 21
1406.768498134559
 31
0.0
  0
LINE
  5
110C5
  8
0
 10
2192.8440091283351
 20
1367.268498134559
 30
0.0
 11
2190.8440091283319
 21
1369.268498134559
 31
0.0
  0
LINE
  5
110C6
  8
0
 10
2190.8440091283319
 20
1369.268498134559
 30
0.0
 11
2190.8440091283351
 21
1406.768498134559
 31
0.0
  0
LINE
  5
110C7
  8
0
 10
2190.8440091283319
 20
1405.5184981345601
 30
0.0
 11
2190.8440091283319
 21
1370.518498134559
 31
0.0
  0
LINE
  5
110C8
  8
0
 10
2190.8440091283319
 20
1372.024898134559
 30
0.0
 11
2190.8440091283319
 21
1404.0120981345581
 31
0.0
  0
LINE
  5
110C9
  8
0
 10
2273.546029865026
 20
1640.78169813456
 30
0.0
 11
2192.9340091283361
 21
1640.78169813456
 31
0.0
  0
LINE
  5
110CA
  8
0
 10
2192.9340091283361
 20
1640.78169813456
 30
0.0
 11
2190.8440091283319
 21
1642.8716981345619
 31
0.0
  0
LINE
  5
110CB
  8
0
 10
2276.5460298650269
 20
1190.151698134559
 30
0.0
 11
2192.8440091283351
 21
1190.151698134559
 31
0.0
  0
LINE
  5
110CC
  8
0
 10
2192.8440091283351
 20
1190.151698134559
 30
0.0
 11
2190.8440091283319
 21
1188.151698134559
 31
0.0
  0
LINE
  5
110CD
  8
0
  6
CONTINUOUS
 10
2216.1440091283321
 20
1114.950277015836
 30
0.0
 11
2276.5460298650269
 21
1114.950277015836
 31
0.0
  0
LINE
  5
110CE
  8
0
  6
CONTINUOUS
 10
2216.1440091283321
 20
1086.950277015836
 30
0.0
 11
2276.5460298650269
 21
1086.950277015836
 31
0.0
  0
LINE
  5
110CF
  8
0
  6
CONTINUOUS
 10
2216.1440091283321
 20
1086.950277015836
 30
0.0
 11
2216.1440091283321
 21
1114.950277015836
 31
0.0
  0
LINE
  5
110D0
  8
0
 10
2190.8440091283319
 20
1426.7337975961791
 30
0.0
 11
2190.8440091283319
 21
1425.13849813456
 31
0.0
  0
LINE
  5
110D1
  8
0
 10
2190.8440091283319
 20
1425.13849813456
 30
0.0
 11
2192.8440091283342
 21
1423.13849813456
 31
0.0
  0
LINE
  5
110D2
  8
0
 10
2192.8440091283342
 20
1423.13849813456
 30
0.0
 11
2217.8440091283342
 21
1423.13849813456
 31
0.0
  0
CIRCLE
  5
110D3
  8
OUTLINE
 10
1559.8413109576661
 20
1661.53169813456
 30
0.0
 40
22.5
  0
CIRCLE
  5
110D4
  8
OUTLINE
 10
1514.8394721954189
 20
1169.401698134561
 30
0.0
 40
22.5
  0
CIRCLE
  5
110D5
  8
OUTLINE
 10
1676.341310957667
 20
1674.643498134559
 30
0.0
 40
22.190759914580489
  0
CIRCLE
  5
110D6
  8
OUTLINE
 10
1676.3413109576661
 20
1388.018498134559
 30
0.0
 40
22.190759914580489
  0
CIRCLE
  5
110D7
  8
OUTLINE
 10
1593.8413109576661
 20
1443.88849813456
 30
0.0
 40
22.190759914580489
  0
CIRCLE
  5
110D8
  8
OUTLINE
 10
1593.841310957667
 20
1157.2634981345591
 30
0.0
 40
22.190759914580489
  0
LINE
  5
110D9
  8
OUTLINE
 10
1747.9792406872939
 20
1760.59924215971
 30
0.0
 11
1085.5792406872929
 21
1760.5992421597109
 31
0.0
  0
LINE
  5
110DA
  8
OUTLINE
 10
1096.7792406872941
 20
1060.199242159711
 30
0.0
 11
1736.7806896701629
 21
1060.199242159711
 31
0.0
  0
LINE
  5
110DB
  8
OUTLINE
 10
1116.7792406872941
 20
1760.5992421597109
 30
0.0
 11
1116.7792406872941
 21
1060.199242159711
 31
0.0
  0
CIRCLE
  5
110DC
  8
OUTLINE
 10
1474.0438607456399
 20
1100.950277015836
 30
0.0
 40
14.0
  0
LINE
  5
110DD
  8
OUTLINE
 10
1050.579240687292
 20
1724.3977213669241
 30
0.0
 11
1050.579240687292
 21
1414.397721366925
 31
0.0
  0
LINE
  5
110DE
  8
OUTLINE
 10
1116.7792406872941
 20
1754.3977213669241
 30
0.0
 11
1116.7792406872941
 21
1384.397721366925
 31
0.0
  0
LINE
  5
110DF
  8
OUTLINE
 10
1115.5792406872929
 20
1414.397721366925
 30
0.0
 11
1050.579240687292
 21
1414.397721366925
 31
0.0
  0
LINE
  5
110E0
  8
OUTLINE
 10
1115.5792406872929
 20
1384.3977213669241
 30
0.0
 11
1115.5792406872929
 21
1414.397721366925
 31
0.0
  0
LINE
  5
110E1
  8
OUTLINE
 10
1116.7792406872941
 20
1384.397721366925
 30
0.0
 11
1115.5792406872929
 21
1384.3977213669241
 31
0.0
  0
LINE
  5
110E2
  8
OUTLINE
 10
1116.7792406872941
 20
1724.3977213669241
 30
0.0
 11
1050.579240687292
 21
1724.3977213669241
 31
0.0
  0
LINE
  5
110E3
  8
OUTLINE
 10
1085.5792406872929
 20
1760.5992421597109
 30
0.0
 11
1085.5792406872929
 21
1752.3992421597111
 31
0.0
  0
LINE
  5
110E4
  8
OUTLINE
 10
1782.979240687293
 20
1691.719242159711
 30
0.0
 11
1782.979240687293
 21
1142.3220388798161
 31
0.0
  0
LINE
  5
110E5
  8
OUTLINE
 10
1716.7792406872941
 20
1060.199242159711
 30
0.0
 11
1716.7792406872941
 21
1759.3992421597111
 31
0.0
  0
LINE
  5
110E6
  8
OUTLINE
 10
1716.7792406872941
 20
1141.122038879816
 30
0.0
 11
1782.979240687293
 21
1141.122038879816
 31
0.0
  0
LINE
  5
110E7
  8
OUTLINE
 10
1782.979240687293
 20
1141.122038879816
 30
0.0
 11
1782.979240687293
 21
1142.3220388798161
 31
0.0
  0
LINE
  5
110E8
  8
OUTLINE
 10
1723.7792406872941
 20
1692.9192421597111
 30
0.0
 11
1782.979240687293
 21
1692.9192421597111
 31
0.0
  0
LINE
  5
110E9
  8
OUTLINE
 10
1747.9792406872939
 20
1760.59924215971
 30
0.0
 11
1747.9792406872939
 21
1752.3992421597111
 31
0.0
  0
LINE
  5
110EA
  8
OUTLINE
 10
1782.979240687293
 20
1692.9192421597111
 30
0.0
 11
1782.979240687293
 21
1691.719242159711
 31
0.0
  0
LINE
  5
110EB
  8
DIM
 62
    52
 10
1050.579240687292
 20
1744.3977213669241
 30
0.0
 11
1050.579240687292
 21
1910.294104900132
 31
0.0
  0
LINE
  5
110EC
  8
DIM
 62
    52
 10
1782.979240687293
 20
1712.9192421597111
 30
0.0
 11
1782.979240687293
 21
1910.294104900132
 31
0.0
  0
LINE
  5
110ED
  8
DIM
 62
    52
 10
1080.579240687292
 20
1890.294104900132
 30
0.0
 11
1357.490490677668
 21
1890.294104900132
 31
0.0
  0
LINE
  5
110EE
  8
DIM
 62
    52
 10
1752.979240687293
 20
1890.294104900132
 30
0.0
 11
1479.639332553241
 21
1890.294104900132
 31
0.0
  0
SOLID
  5
110EF
  8
DIM
 62
    52
 10
1080.579240687292
 20
1895.294104900132
 30
0.0
 11
1080.579240687292
 21
1885.294104900132
 31
0.0
 12
1050.579240687292
 22
1890.294104900132
 32
0.0
 13
1050.579240687292
 23
1890.294104900132
 33
0.0
  0
SOLID
  5
110F0
  8
DIM
 62
    52
 10
1752.979240687293
 20
1895.294104900132
 30
0.0
 11
1752.979240687293
 21
1885.294104900132
 31
0.0
 12
1782.979240687293
 22
1890.294104900132
 32
0.0
 13
1782.979240687293
 23
1890.294104900132
 33
0.0
  0
TEXT
  5
110F1
  8
DIM
 62
    50
 10
1378.207812115865
 20
1875.294104900132
 30
0.0
 40
30.0
  1
733
  7
TITLE3
 72
     4
 11
1416.7792406872941
 21
1890.294104900132
 31
0.0
  0
LINE
  5
110F2
  8
DIM
 62
    52
 10
1065.5792406872929
 20
1760.5992421597109
 30
0.0
 11
863.9932996975765
 21
1760.5992421597109
 31
0.0
  0
LINE
  5
110F3
  8
DIM
 62
    52
 10
1080.0544123376051
 20
1060.199242159711
 30
0.0
 11
863.9932996975765
 21
1060.199242159711
 31
0.0
  0
LINE
  5
110F4
  8
DIM
 62
    52
 10
883.99329969757662
 20
1730.5992421597109
 30
0.0
 11
883.99329969757662
 21
1468.9266068623681
 31
0.0
  0
LINE
  5
110F5
  8
DIM
 62
    52
 10
883.99329969757662
 20
1090.199242159711
 30
0.0
 11
883.99329969757662
 21
1361.386519812593
 31
0.0
  0
SOLID
  5
110F6
  8
DIM
 62
    52
 10
878.99329969757684
 20
1730.5992421597109
 30
0.0
 11
888.9932996975765
 21
1730.5992421597109
 31
0.0
 12
883.99329969757662
 22
1760.5992421597109
 32
0.0
 13
883.99329969757662
 23
1760.5992421597109
 33
0.0
  0
SOLID
  5
110F7
  8
DIM
 62
    52
 10
878.99329969757684
 20
1090.199242159711
 30
0.0
 11
888.9932996975765
 21
1090.199242159711
 31
0.0
 12
883.99329969757662
 22
1060.199242159711
 32
0.0
 13
883.99329969757662
 23
1060.199242159711
 33
0.0
  0
TEXT
  5
110F8
  8
DIM
 62
    50
 10
898.9932996975765
 20
1378.256385016854
 30
0.0
 40
30.0
  1
701
 50
90.0
  7
TITLE3
 72
     4
 11
883.99329969757662
 21
1410.3992421597111
 31
0.0
  0
LINE
  5
110F9
  8
OUTLINE
 10
1723.7792406872941
 20
1709.999242159711
 30
0.0
 11
1716.7792406872941
 21
1709.999242159711
 31
0.0
  0
LINE
  5
110FA
  8
OUTLINE
 10
1781.779240687292
 20
1639.999242159711
 30
0.0
 11
1716.7792406872941
 21
1639.999242159711
 31
0.0
  0
LINE
  5
110FB
  8
OUTLINE
 10
1781.779240687292
 20
1646.999242159711
 30
0.0
 11
1781.779240687292
 21
1639.999242159711
 31
0.0
  0
LINE
  5
110FC
  8
OUTLINE
 10
1779.779240687292
 20
1631.999242159711
 30
0.0
 11
1743.779240687292
 21
1631.999242159711
 31
0.0
  0
LINE
  5
110FD
  8
OUTLINE
 10
1779.779240687292
 20
1639.999242159711
 30
0.0
 11
1779.779240687292
 21
1631.999242159711
 31
0.0
  0
LINE
  5
110FE
  8
OUTLINE
 10
1743.779240687292
 20
1639.999242159713
 30
0.0
 11
1743.779240687292
 21
1631.999242159711
 31
0.0
  0
LINE
  5
110FF
  8
OUTLINE
 10
1723.7792406872941
 20
1709.999242159711
 30
0.0
 11
1723.779240687292
 21
1646.999242159711
 31
0.0
  0
LINE
  5
11100
  8
OUTLINE
 10
1781.779240687292
 20
1646.999242159711
 30
0.0
 11
1723.779240687292
 21
1646.999242159711
 31
0.0
  0
LINE
  5
11101
  8
OUTLINE
 10
1109.7792406872941
 20
1709.999242159711
 30
0.0
 11
1109.7792406872941
 21
1646.999242159711
 31
0.0
  0
LINE
  5
11102
  8
OUTLINE
 10
1051.7792406872941
 20
1646.999242159711
 30
0.0
 11
1109.7792406872941
 21
1646.999242159711
 31
0.0
  0
LINE
  5
11103
  8
OUTLINE
 10
1051.7792406872941
 20
1639.999242159711
 30
0.0
 11
1116.7792406872941
 21
1639.9992421597119
 31
0.0
  0
LINE
  5
11104
  8
OUTLINE
 10
1053.7792406872941
 20
1631.999242159711
 30
0.0
 11
1089.7792406872941
 21
1631.999242159711
 31
0.0
  0
LINE
  5
11105
  8
OUTLINE
 10
1089.7792406872941
 20
1639.999242159713
 30
0.0
 11
1089.7792406872941
 21
1631.999242159711
 31
0.0
  0
LINE
  5
11106
  8
OUTLINE
 10
1051.7792406872941
 20
1646.999242159711
 30
0.0
 11
1051.7792406872941
 21
1639.999242159711
 31
0.0
  0
LINE
  5
11107
  8
OUTLINE
 10
1053.7792406872941
 20
1639.999242159711
 30
0.0
 11
1053.7792406872941
 21
1631.999242159711
 31
0.0
  0
LINE
  5
11108
  8
OUTLINE
 10
1109.7792406872941
 20
1709.999242159711
 30
0.0
 11
1116.7792406872941
 21
1709.999242159711
 31
0.0
  0
LINE
  5
11109
  8
0
 10
2190.8440091283319
 20
1188.151698134559
 30
0.0
 11
2190.8440091283319
 21
1138.5134981345591
 31
0.0
  0
LINE
  5
1110A
  8
0
 10
2190.8440091283319
 20
1138.5134981345591
 30
0.0
 11
2192.8440091283351
 21
1136.5134981345591
 31
0.0
  0
LINE
  5
1110B
  8
0
 10
2192.8440091283351
 20
1136.5134981345591
 30
0.0
 11
2217.8440091283351
 21
1136.5134981345591
 31
0.0
  0
LINE
  5
1110C
  8
0
 10
2190.8440091283342
 20
1188.151698134559
 30
0.0
 11
2192.8440091283351
 21
1190.151698134559
 31
0.0
  0
LINE
  5
1110D
  8
0
 10
2192.8440091283351
 20
1190.151698134559
 30
0.0
 11
2217.8440091283351
 21
1190.151698134559
 31
0.0
  0
LINE
  5
1110E
  8
0
 10
2217.8440091283351
 20
1178.01349813456
 30
0.0
 11
2192.8440091283351
 21
1178.01349813456
 31
0.0
  0
LINE
  5
1110F
  8
0
 10
2192.8440091283351
 20
1178.01349813456
 30
0.0
 11
2190.8440091283351
 21
1176.01349813456
 31
0.0
  0
LINE
  5
11110
  8
0
 10
2190.8440091283319
 20
1370.863797596181
 30
0.0
 11
2190.8440091283319
 21
1369.268498134559
 31
0.0
  0
LINE
  5
11111
  8
0
 10
2190.8440091283319
 20
1369.268498134559
 30
0.0
 11
2192.8440091283351
 21
1367.268498134559
 31
0.0
  0
LINE
  5
11112
  8
0
 10
2192.8440091283351
 20
1367.268498134559
 30
0.0
 11
2217.8440091283351
 21
1367.268498134559
 31
0.0
  0
LINE
  5
11113
  8
0
 10
2217.8440091283351
 20
1408.7684981345601
 30
0.0
 11
2192.8440091283351
 21
1408.7684981345601
 31
0.0
  0
LINE
  5
11114
  8
0
 10
2192.8440091283351
 20
1408.7684981345601
 30
0.0
 11
2190.8440091283351
 21
1406.768498134559
 31
0.0
  0
LINE
  5
11115
  8
0
 10
2190.8440091283351
 20
1406.768498134559
 30
0.0
 11
2190.8440091283351
 21
1405.173198672939
 31
0.0
  0
LINE
  5
11116
  8
0
 10
2217.8440091283342
 20
1464.6384981345609
 30
0.0
 11
2192.8440091283342
 21
1464.6384981345609
 31
0.0
  0
LINE
  5
11117
  8
0
 10
2192.8440091283342
 20
1464.6384981345609
 30
0.0
 11
2190.8440091283319
 21
1462.6384981345609
 31
0.0
  0
LINE
  5
11118
  8
0
 10
2190.8440091283319
 20
1462.6384981345609
 30
0.0
 11
2190.8440091283319
 21
1461.0431986729391
 31
0.0
  0
TEXT
  5
11119
  8
TEXT
 10
3718.2818648437642
 20
60.162757074234818
 30
0.0
 40
30.0
  1
1:10
  7
TITLE3
  0
TEXT
  5
1111A
  8
TEXT
 10
4357.7383309869574
 20
69.968749295573616
 30
0.0
 40
30.0
  1
IMD550
  7
TITLE3
  0
TEXT
  5
1111B
  8
TEXT
 10
3984.8583364409328
 20
287.33486193662333
 30
0.0
 40
60.0
  1
IMD550
  7
TITLE3
  0
TEXT
  5
1111C
  8
DIM
 62
    50
 10
4114.9712414048599
 20
2736.365359899818
 30
0.0
 40
30.0
  1
688
 50
90.0
  7
TITLE3
 72
     4
 11
4099.9712414048599
 21
2774.9367884712469
 31
0.0
  0
LINE
  5
1111D
  8
CLEAR
 10
1781.746029865026
 20
2475.5367884712468
 30
0.0
 11
1781.746029865026
 21
3074.3367884712479
 31
0.0
  0
LINE
  5
1111E
  8
CLEAR
 10
4395.5419883916384
 20
2475.5367884712468
 30
0.0
 11
4395.5419883916384
 21
3074.3367884712479
 31
0.0
  0
LINE
  5
1111F
  8
CLEAR
 10
2281.7460298650249
 20
3074.3367884712479
 30
0.0
 11
1781.746029865026
 21
3074.3367884712479
 31
0.0
  0
LINE
  5
11120
  8
CLEAR
 10
2281.7460298650249
 20
2475.5367884712468
 30
0.0
 11
1781.746029865026
 21
2475.5367884712468
 31
0.0
  0
TEXT
  5
11121
  8
TEXT
  6
PHANTOM2
 10
1855.857482841958
 20
2632.189521813581
 30
0.0
 40
42.0
  1
500 min 
 50
90.0
  7
TITLE3
  0
TEXT
  5
11122
  8
TEXT
  6
PHANTOM2
 10
1927.8574828419571
 20
2602.1013767869958
 30
0.0
 40
42.0
  1
CLEARANCE
 50
90.0
  7
TITLE3
  0
TEXT
  5
11123
  8
TEXT
  6
PHANTOM2
 10
4282.1768723279902
 20
2632.189521813581
 30
0.0
 40
42.0
  1
500 min 
 50
90.0
  7
TITLE3
  0
TEXT
  5
11124
  8
TEXT
  6
PHANTOM2
 10
4354.1768723279893
 20
2602.1013767869958
 30
0.0
 40
42.0
  1
CLEARANCE
 50
90.0
  7
TITLE3
  0
LINE
  5
11125
  8
CLEAR
 10
3895.5419883916402
 20
3074.3367884712479
 30
0.0
 11
4395.5419883916384
 21
3074.3367884712479
 31
0.0
  0
LINE
  5
11126
  8
CLEAR
 10
3895.5419883916388
 20
2475.5367884712468
 30
0.0
 11
4395.5419883916384
 21
2475.5367884712468
 31
0.0
  0
TEXT
  5
11127
  8
TEXT
 10
2943.2565763208131
 20
1371.0921278691919
 30
0.0
 40
60.0
  1
IMD550
  7
TITLE3
  0
TEXT
  5
11128
  8
TEXT
 10
2924.8753787991268
 20
2767.1184332205321
 30
0.0
 40
60.0
  1
IMD550
  7
TITLE3
  0
TEXT
  5
11129
  8
TEXT
 10
1215.4230777091141
 20
1395.5838152456449
 30
0.0
 40
60.0
  1
IMD550
  7
TITLE3
  0
INSERT
  5
1112A
  8
OUTLINE
  2
NEW_BLOCK0
 10
776.9189155888763
 20
27.692453175781331
 30
0.0
 41
1.1999999999999991
 42
1.1999999999999991
 43
1.1999999999999991
  0
LINE
  5
1112B
  8
DIM
 10
3207.7773575595129
 20
2527.011662875409
 30
0.0
 11
3173.486161937517
 21
2470.6067650846262
 31
0.0
  0
LINE
  5
1112C
  8
DIM
 10
3207.7773575595129
 20
2527.011662875409
 30
0.0
 11
3242.0685531815102
 21
2470.6067650846262
 31
0.0
  0
LINE
  5
1112D
  8
DIM
 10
3173.486161937517
 20
2470.6067650846262
 30
0.0
 11
3194.7849410018762
 21
2470.6067650846262
 31
0.0
  0
LINE
  5
1112E
  8
DIM
 10
3194.7849410018762
 20
2470.6067650846262
 30
0.0
 11
3194.7849410018762
 21
2404.623681835571
 31
0.0
  0
LINE
  5
1112F
  8
DIM
 10
3220.7697741171542
 20
2470.6067650846262
 30
0.0
 11
3220.7697741171542
 21
2404.623681835571
 31
0.0
  0
LINE
  5
11130
  8
DIM
 10
3194.7849410018762
 20
2404.623681835571
 30
0.0
 11
3220.7697741171542
 21
2404.623681835571
 31
0.0
  0
LINE
  5
11131
  8
DIM
 10
3242.0685531815102
 20
2470.6067650846262
 30
0.0
 11
3220.7697741171542
 21
2470.6067650846262
 31
0.0
  0
LINE
  5
11132
  8
DIM
 10
3194.7849410018762
 20
3120.6646835748029
 30
0.0
 11
3194.7849410018762
 21
3054.6816003257491
 31
0.0
  0
LINE
  5
11133
  8
DIM
 10
3220.7697741171542
 20
3120.6646835748029
 30
0.0
 11
3220.7697741171542
 21
3054.6816003257491
 31
0.0
  0
LINE
  5
11134
  8
DIM
 10
3194.7849410018762
 20
3054.6816003257491
 30
0.0
 11
3220.7697741171542
 21
3054.6816003257491
 31
0.0
  0
LINE
  5
11135
  8
DIM
 10
3207.7773575595129
 20
3177.0695813655861
 30
0.0
 11
3173.486161937517
 21
3120.6646835748029
 31
0.0
  0
LINE
  5
11136
  8
DIM
 10
3173.486161937517
 20
3120.6646835748029
 30
0.0
 11
3194.7849410018762
 21
3120.6646835748029
 31
0.0
  0
LINE
  5
11137
  8
DIM
 10
3242.0685531815102
 20
3120.6646835748029
 30
0.0
 11
3220.7697741171542
 21
3120.6646835748029
 31
0.0
  0
LINE
  5
11138
  8
DIM
 10
3207.7773575595129
 20
3177.0695813655861
 30
0.0
 11
3242.0685531815102
 21
3120.6646835748029
 31
0.0
  0
ENDSEC
  0
EOF
