  0
SECTION
  2
HEADER
  9
$ACADVER
  1
AC1009
  9
$INSBASE
 10
0.0
 20
0.0
 30
0.0
  9
$EXTMIN
 10
134.02741399829659
 20
81.095587342390004
 30
-0.0000000000000058
  9
$EXTMAX
 10
3690.9770290890901
 20
2538.3160460906988
 30
0.0000000000000104
  9
$LIMMIN
 10
0.0
 20
0.0
  9
$LIMMAX
 10
3890.0
 20
2660.0
  9
$ORTHOMODE
 70
     1
  9
$REGENMODE
 70
     1
  9
$FILLMODE
 70
     1
  9
$QTEXTMODE
 70
     0
  9
$MIRRTEXT
 70
     0
  9
$DRAGMODE
 70
     2
  9
$LTSCALE
 40
60.0
  9
$OSMODE
 70
   519
  9
$ATTMODE
 70
     1
  9
$TEXTSIZE
 40
30.0
  9
$TRACEWID
 40
0.05
  9
$TEXTSTYLE
  7
TITLE3
  9
$CLAYER
  8
TEXT
  9
$CELTYPE
  6
CONTINUOUS
  9
$CECOLOR
 62
   256
  9
$DIMSCALE
 40
1.0
  9
$DIMASZ
 40
30.0
  9
$DIMEXO
 40
10.0
  9
$DIMDLI
 40
0.38
  9
$DIMRND
 40
0.0
  9
$DIMDLE
 40
0.0
  9
$DIMEXE
 40
0.18
  9
$DIMTP
 40
0.0
  9
$DIMTM
 40
0.0
  9
$DIMTXT
 40
30.0
  9
$DIMCEN
 40
0.09
  9
$DIMTSZ
 40
0.0
  9
$DIMTOL
 70
     0
  9
$DIMLIM
 70
     0
  9
$DIMTIH
 70
     0
  9
$DIMTOH
 70
     0
  9
$DIMSE1
 70
     0
  9
$DIMSE2
 70
     0
  9
$DIMTAD
 70
     0
  9
$DIMZIN
 70
     0
  9
$DIMBLK
  1

  9
$DIMASO
 70
     0
  9
$DIMSHO
 70
     0
  9
$DIMPOST
  1

  9
$DIMAPOST
  1

  9
$DIMALT
 70
     0
  9
$DIMALTD
 70
     2
  9
$DIMALTF
 40
25.399999999999999
  9
$DIMLFAC
 40
1.0
  9
$DIMTOFL
 70
     0
  9
$DIMTVP
 40
0.0
  9
$DIMTIX
 70
     0
  9
$DIMSOXD
 70
     0
  9
$DIMSAH
 70
     0
  9
$DIMBLK1
  1

  9
$DIMBLK2
  1

  9
$DIMSTYLE
  2
COPY_OF_COPY_OF_STANDARD
  9
$DIMCLRD
 70
     0
  9
$DIMCLRE
 70
     0
  9
$DIMCLRT
 70
     0
  9
$DIMTFAC
 40
1.0
  9
$DIMGAP
 40
5.0
  9
$LUNITS
 70
     2
  9
$LUPREC
 70
     2
  9
$SKETCHINC
 40
0.1
  9
$FILLETRAD
 40
0.0
  9
$AUNITS
 70
     0
  9
$AUPREC
 70
     2
  9
$MENU
  1
CNC
  9
$ELEVATION
 40
0.0
  9
$PELEVATION
 40
0.0
  9
$THICKNESS
 40
0.0
  9
$LIMCHECK
 70
     0
  9
$BLIPMODE
 70
     0
  9
$CHAMFERA
 40
0.0
  9
$CHAMFERB
 40
0.0
  9
$SKPOLY
 70
     0
  9
$TDCREATE
 40
2450694.550174769
  9
$TDUPDATE
 40
2454599.4634439121
  9
$TDINDWG
 40
2.6251316319
  9
$TDUSRTIMER
 40
2.6251281829000002
  9
$USRTIMER
 70
     1
  9
$ANGBASE
 50
0.0
  9
$ANGDIR
 70
     0
  9
$PDMODE
 70
     2
  9
$PDSIZE
 40
10.0
  9
$PLINEWID
 40
0.0
  9
$COORDS
 70
     2
  9
$SPLFRAME
 70
     0
  9
$SPLINETYPE
 70
     6
  9
$SPLINESEGS
 70
     8
  9
$ATTDIA
 70
     0
  9
$ATTREQ
 70
     1
  9
$HANDLING
 70
     1
  9
$HANDSEED
  5
CE2B
  9
$SURFTAB1
 70
     6
  9
$SURFTAB2
 70
     6
  9
$SURFTYPE
 70
     6
  9
$SURFU
 70
     6
  9
$SURFV
 70
     6
  9
$UCSNAME
  2

  9
$UCSORG
 10
0.0
 20
0.0
 30
0.0
  9
$UCSXDIR
 10
1.0
 20
0.0
 30
0.0
  9
$UCSYDIR
 10
0.0
 20
1.0
 30
0.0
  9
$PUCSNAME
  2

  9
$PUCSORG
 10
0.0
 20
0.0
 30
0.0
  9
$PUCSXDIR
 10
1.0
 20
0.0
 30
0.0
  9
$PUCSYDIR
 10
0.0
 20
1.0
 30
0.0
  9
$USERI1
 70
     0
  9
$USERI2
 70
     0
  9
$USERI3
 70
     0
  9
$USERI4
 70
     0
  9
$USERI5
 70
     0
  9
$USERR1
 40
0.0
  9
$USERR2
 40
0.0
  9
$USERR3
 40
0.0
  9
$USERR4
 40
0.0
  9
$USERR5
 40
0.0
  9
$WORLDVIEW
 70
     1
  9
$SHADEDGE
 70
     3
  9
$SHADEDIF
 70
    70
  9
$TILEMODE
 70
     1
  9
$MAXACTVP
 70
    16
  9
$PLIMCHECK
 70
     0
  9
$PEXTMIN
 10
1.0000000000000000E+020
 20
1.0000000000000000E+020
 30
1.0000000000000000E+020
  9
$PEXTMAX
 10
-1.0000000000000000E+020
 20
-1.0000000000000000E+020
 30
-1.0000000000000000E+020
  9
$PLIMMIN
 10
0.0
 20
0.0
  9
$PLIMMAX
 10
12.0
 20
9.0
  9
$UNITMODE
 70
     0
  9
$VISRETAIN
 70
     0
  9
$PLINEGEN
 70
     0
  9
$PSLTSCALE
 70
     0
  0
ENDSEC
  0
SECTION
  2
TABLES
  0
TABLE
  2
VPORT
 70
     1
  0
VPORT
  2
*ACTIVE
 70
     0
 10
0.0
 20
0.0
 11
1.0
 21
1.0
 12
1912.5022215436929
 22
1309.7058167165439
 13
0.0
 23
0.0
 14
25.0
 24
25.0
 15
100.0
 25
100.0
 16
0.0
 26
0.0
 36
1.0
 17
0.0
 27
0.0
 37
0.0
 40
2479.0624183816258
 41
1.66320474777448
 42
50.0
 43
0.0
 44
0.0
 50
0.0
 51
0.0
 71
     0
 72
   100
 73
     1
 74
     0
 75
     0
 76
     0
 77
     0
 78
     0
  0
ENDTAB
  0
TABLE
  2
LTYPE
 70
     2
  0
LTYPE
  2
CONTINUOUS
 70
     0
  3
Solid line
 72
    65
 73
     0
 40
0.0
  0
LTYPE
  2
HIDDEN
 70
     0
  3
__ __ __ __ __ __ __ __ __ __ __ __ __ __ __ __
 72
    65
 73
     2
 40
0.375
 49
0.25
 49
-0.125
  0
ENDTAB
  0
TABLE
  2
LAYER
 70
     5
  0
LAYER
  2
0
 70
     0
 62
     7
  6
CONTINUOUS
  0
LAYER
  2
TEXT
 70
     0
 62
     3
  6
CONTINUOUS
  0
LAYER
  2
DIM
 70
     0
 62
     2
  6
CONTINUOUS
  0
LAYER
  2
OUTLINE
 70
     0
 62
     7
  6
CONTINUOUS
  0
LAYER
  2
OVERLAY-A3
 70
     0
 62
     7
  6
CONTINUOUS
  0
ENDTAB
  0
TABLE
  2
STYLE
 70
     6
  0
STYLE
  2
STANDARD
 70
     0
 40
0.0
 41
1.0
 50
0.0
 71
     0
 42
0.2
  3
txt
  4

  0
STYLE
  2
ANNOTATIVE
 70
     0
 40
0.0
 41
1.0
 50
0.0
 71
     0
 42
0.2
  3
txt
  4

  0
STYLE
  2
TITLE3
 70
     0
 40
30.0
 41
1.0
 50
0.0
 71
     0
 42
30.0
  3
SIMPLEX
  4

  0
STYLE
  2
SIMPLEX
 70
     0
 40
40.0
 41
1.0
 50
0.0
 71
     0
 42
25.0
  3
SIMPLEX
  4

  0
STYLE
  2
TITLE5
 70
     0
 40
50.0
 41
1.0
 50
0.0
 71
     0
 42
50.0
  3
SIMPLEX.shx
  4

  0
ENDTAB
  0
TABLE
  2
VIEW
 70
     0
  0
ENDTAB
  0
TABLE
  2
UCS
 70
     0
  0
ENDTAB
  0
TABLE
  2
APPID
 70
    19
  0
APPID
  2
ACAD
 70
     0
  0
APPID
  2
ACADANNOTATIVE
 70
     0
  0
APPID
  2
ACAD_MLEADERVER
 70
     0
  0
APPID
  2
ACAD_PSEXT
 70
     0
  0
APPID
  2
ACAD_DSTYLE_DIMJAG
 70
     0
  0
APPID
  2
ACAD_DSTYLE_DIMBREAK
 70
     0
  0
APPID
  2
ACAD_DSTYLE_DIMTALN
 70
     0
  0
APPID
  2
ACADANNOPO
 70
     0
  0
APPID
  2
ACAD_EXEMPT_FROM_CAD_STANDARDS
 70
     0
  0
APPID
  2
ACAD_DSTYLE_DIMRADIAL_EXTENSION
 70
     0
  0
APPID
  2
ACAECLAYERSTANDARD
 70
     0
  0
APPID
  2
MCAD_NO_VIS
 70
     0
  0
APPID
  2
ACAD_TEMP_GRAPHIC
 70
     0
  0
APPID
  2
AD_DRAW
 70
     0
  0
APPID
  2
ACATTRIBSERVICES
 70
     0
  0
APPID
  2
DESIGNERASSEMBLIES
 70
     0
  0
APPID
  2
ACADM_DIM_EDIT
 70
     0
  0
APPID
  2
AMDT_DM_ADJ
 70
     0
  0
APPID
  2
CONTENTBLOCKICON
 70
     0
  0
ENDTAB
  0
TABLE
  2
DIMSTYLE
 70
     4
  0
DIMSTYLE
  2
STANDARD
 70
     0
  3

  4

  5

  6

  7

 40
1.0
 41
0.18
 42
0.0625
 43
0.38
 44
0.18
 45
0.0
 46
0.0
 47
0.0
 48
0.0
140
0.18
141
0.09
142
0.0
143
25.399999999999999
144
1.0
145
0.0
146
1.0
147
0.09
 71
     0
 72
     0
 73
     1
 74
     1
 75
     0
 76
     0
 77
     0
 78
     0
170
     0
171
     2
172
     0
173
     0
174
     0
175
     0
176
     0
177
     0
178
     0
  0
DIMSTYLE
  2
ANNOTATIVE
 70
     0
  3

  4

  5

  6

  7

 40
1.0
 41
0.18
 42
0.0625
 43
0.38
 44
0.18
 45
0.0
 46
0.0
 47
0.0
 48
0.0
140
0.18
141
0.09
142
0.0
143
25.399999999999999
144
1.0
145
0.0
146
1.0
147
0.09
 71
     0
 72
     0
 73
     1
 74
     1
 75
     0
 76
     0
 77
     0
 78
     0
170
     0
171
     2
172
     0
173
     0
174
     0
175
     0
176
     0
177
     0
178
     0
  0
DIMSTYLE
  2
COPY_OF_COPY_OF_STANDARD
 70
     0
  3

  4

  5

  6

  7

 40
1.0
 41
30.0
 42
10.0
 43
0.38
 44
0.18
 45
0.0
 46
0.0
 47
0.0
 48
0.0
140
30.0
141
0.09
142
0.0
143
25.399999999999999
144
1.0
145
0.0
146
1.0
147
5.0
 71
     0
 72
     0
 73
     0
 74
     0
 75
     0
 76
     0
 77
     0
 78
     0
170
     0
171
     2
172
     0
173
     0
174
     0
175
     0
176
     0
177
     0
178
     0
  0
ENDTAB
  0
ENDSEC
  0
SECTION
  2
BLOCKS
  0
BLOCK
  8
0
  2
$MODEL_SPACE
 70
     0
 10
0.0
 20
0.0
 30
0.0
  3
$MODEL_SPACE
  1

  0
ENDBLK
  5
CD59
  8
0
  0
BLOCK
 67
     1
  8
0
  2
$PAPER_SPACE
 70
     0
 10
0.0
 20
0.0
 30
0.0
  3
$PAPER_SPACE
  1

  0
ENDBLK
  5
CD55
 67
     1
  8
0
  0
BLOCK
  8
0
  2
NEW_BLOCK
 70
     0
 10
0.0
 20
0.0
 30
0.0
  3
NEW_BLOCK
  1

  0
TEXT
  5
7FFE
  8
TEXT
 10
27.285946821803002
 20
25.27142175952417
 30
0.0
 40
40.0
  1
available on request
  7
TITLE3
  0
TEXT
  5
7FFF
  8
TEXT
 10
27.285946821803002
 20
93.842850330952714
 30
0.0
 40
40.0
  1
Certified dimensions
  7
TITLE3
  0
TEXT
  5
8000
  8
TEXT
 10
27.285946821803002
 20
162.4142789023812
 30
0.0
 40
40.0
  1
without notice or obligation.
  7
TITLE3
  0
TEXT
  5
8001
  8
TEXT
 10
27.285946821803002
 20
230.9857074738097
 30
0.0
 40
40.0
  1
specifications at any time
  7
TITLE3
  0
TEXT
  5
8002
  8
TEXT
 10
27.285946821803002
 20
299.55713604523839
 30
0.0
 40
40.0
  1
the right to change 
  7
TITLE3
  0
TEXT
  5
8003
  8
TEXT
 10
27.285946821803002
 20
436.69999318809488
 30
0.0
 40
40.0
  1
NOTE
  7
TITLE3
  0
TEXT
  5
8004
  8
TEXT
 10
27.285946821803002
 20
368.12856461666678
 30
0.0
 40
40.0
  1
The manufacturer reserves
  7
TITLE3
  0
ENDBLK
  5
8005
  8
0
  0
BLOCK
  8
0
  2
A$C70722A8B
 70
     0
 10
0.0
 20
0.0
 30
0.0
  3
A$C70722A8B
  1

  0
TEXT
  5
8C35
  8
OVERLAY-A3
 10
-1013.9894139153701
 20
-226.51141959426729
 30
0.0
 40
24.0
  1
Date
  7
SIMPLEX
  0
TEXT
  5
8C36
  8
OVERLAY-A3
 10
-115.16676568589079
 20
-207.839331430957
 30
0.0
 40
24.0
  1
Revision
 41
0.7812095035934737
  7
SIMPLEX
 72
     5
 11
-9.8150840584280559
 21
-207.839331430957
 31
0.0
  0
LINE
  5
8C37
  8
OVERLAY-A3
 10
-126.7866080693306
 20
-316.50014060605122
 30
0.0
 11
-126.7866080693306
 21
-169.07397774582171
 31
0.0
  0
LINE
  5
8C38
  8
OVERLAY-A3
 10
-1041.926428602344
 20
0.0
 30
0.0
 11
-1041.926428602344
 21
-316.50014060605122
 31
0.0
  0
LINE
  5
8C39
  8
OVERLAY-A3
 10
-444.36428004639828
 20
-316.50014060605122
 30
0.0
 11
-444.36428004639828
 21
-169.07397774582171
 31
0.0
  0
LINE
  5
8C3A
  8
OVERLAY-A3
 10
-444.36428004639828
 20
-244.03003418490439
 30
0.0
 11
-1041.926428602344
 21
-244.03003418490439
 31
0.0
  0
LINE
  5
8C3B
  8
OVERLAY-A3
 10
0.2975071783494059
 20
-169.07397774582171
 30
0.0
 11
-1041.926428602344
 21
-169.07397774582171
 31
0.0
  0
LINE
  5
8C3C
  8
OVERLAY-A3
 10
-1041.926428602344
 20
-316.50014060605122
 30
0.0
 11
0.0
 21
-316.50014060605122
 31
0.0
  0
LINE
  5
8C3D
  8
OVERLAY-A3
 10
0.0
 20
0.0
 30
0.0
 11
-1041.926428602344
 21
0.0
 31
0.0
  0
TEXT
  5
8C3E
  8
OVERLAY-A3
 10
-1016.794738956382
 20
-289.42014538901049
 30
0.0
 40
20.0
  1
Scale
 41
1.370174796565961
  7
SIMPLEX
 72
     5
 11
-916.31525387487795
 21
-289.42014538901049
 31
0.0
  0
TEXT
  5
8C3F
  8
OVERLAY-A3
 10
-386.41883445869428
 20
-208.44920194765839
 30
0.0
 40
20.0
  1
Drawing No.
  7
SIMPLEX
 72
     2
 11
-212.13312017298
 21
-208.44920194765839
 31
0.0
  0
LINE
  5
8C40
  8
OVERLAY-A3
  6
CONTINUOUS
 10
0.0
 20
0.0
 30
0.0
 11
0.0
 21
-316.50014060605122
 31
0.0
  0
ENDBLK
  5
8C42
  8
0
  0
BLOCK
  8
0
  2
*U4
 70
     1
 10
0.0
 20
0.0
 30
0.0
  3
*U4
  1

  0
TEXT
  5
CBD8
  8
OUTLINE
  6
CONTINUOUS
 62
    50
 10
2138.5757614107411
 20
1247.6035179975149
 30
0.0
 40
30.0
  1
975
  7
TITLE3
  0
ENDBLK
  5
CBDA
  8
0
  0
BLOCK
  8
0
  2
*U5
 70
     1
 10
0.0
 20
0.0
 30
0.0
  3
*U5
  1

  0
TEXT
  5
CBDC
  8
OUTLINE
  6
CONTINUOUS
 62
    50
 10
1524.528911136551
 20
1469.7766066125539
 30
0.0
 40
30.0
  1
119
 50
90.0
  7
TITLE3
  0
ENDBLK
  5
CBDE
  8
0
  0
BLOCK
  8
0
  2
*U6
 70
     1
 10
0.0
 20
0.0
 30
0.0
  3
*U6
  1

  0
TEXT
  5
CBE0
  8
OUTLINE
  6
CONTINUOUS
 62
    50
 10
3639.3774101144591
 20
1829.775433129342
 30
0.0
 40
30.0
  1
613
 50
90.0
  7
TITLE3
  0
ENDBLK
  5
CBE2
  8
0
  0
BLOCK
  8
0
  2
*U7
 70
     1
 10
0.0
 20
0.0
 30
0.0
  3
*U7
  1

  0
TEXT
  5
CBE4
  8
OUTLINE
  6
CONTINUOUS
 62
    50
 10
4448.5423070659881
 20
845.62148736168217
 30
0.0
 40
30.0
  1
673
  7
TITLE3
  0
ENDBLK
  5
CBE6
  8
0
  0
BLOCK
  8
0
  2
*U8
 70
     1
 10
0.0
 20
0.0
 30
0.0
  3
*U8
  1

  0
TEXT
  5
CBE8
  8
OUTLINE
  6
CONTINUOUS
 62
    50
 10
3954.0259315589792
 20
391.9411459309423
 30
0.0
 40
30.0
  1
300
 50
90.0
  7
TITLE3
  0
ENDBLK
  5
CBEA
  8
0
  0
BLOCK
  8
0
  2
*U9
 70
     1
 10
0.0
 20
0.0
 30
0.0
  3
*U9
  1

  0
TEXT
  5
CBEC
  8
OUTLINE
  6
CONTINUOUS
 62
    50
 10
3877.7408987293152
 20
364.6840030738208
 30
0.0
 40
30.0
  1
614
 50
90.0
  7
TITLE3
  0
ENDBLK
  5
CBEE
  8
0
  0
BLOCK
  8
0
  2
*U10
 70
     1
 10
0.0
 20
0.0
 30
0.0
  3
*U10
  1

  0
TEXT
  5
CBF0
  8
OUTLINE
  6
CONTINUOUS
 62
    50
 10
1446.2172168791819
 20
343.78130276669998
 30
0.0
 40
30.0
  1
655
 50
90.0
  7
TITLE3
  0
ENDBLK
  5
CBF2
  8
0
  0
BLOCK
  8
0
  2
*U11
 70
     1
 10
0.0
 20
0.0
 30
0.0
  3
*U11
  1

  0
TEXT
  5
CBF4
  8
OUTLINE
  6
CONTINUOUS
 62
    50
 10
3201.8388785244852
 20
829.80710765993717
 30
0.0
 40
30.0
  1
410
  7
TITLE3
  0
ENDBLK
  5
CBF6
  8
0
  0
BLOCK
  8
0
  2
*U12
 70
     1
 10
0.0
 20
0.0
 30
0.0
  3
*U12
  1

  0
TEXT
  5
CBF8
  8
OUTLINE
  6
CONTINUOUS
 62
    50
 10
3595.6749807072929
 20
354.27316628790652
 30
0.0
 40
30.0
  1
635
 50
90.0
  7
TITLE3
  0
ENDBLK
  5
CBFA
  8
0
  0
BLOCK
  8
0
  2
*U13
 70
     1
 10
0.0
 20
0.0
 30
0.0
  3
*U13
  1

  0
TEXT
  5
CBFC
  8
OUTLINE
  6
CONTINUOUS
 62
    50
 10
1591.785891396195
 20
1247.6035179975149
 30
0.0
 40
30.0
  1
123
  7
TITLE3
  0
ENDBLK
  5
CBFE
  8
0
  0
BLOCK
  8
0
  2
*U14
 70
     1
 10
0.0
 20
0.0
 30
0.0
  3
*U14
  1

  0
TEXT
  5
CC00
  8
OUTLINE
  6
CONTINUOUS
 62
    50
 10
2118.740249084256
 20
976.41255629136458
 30
0.0
 40
30.0
  1
1405 MTG CENTERS
  7
TITLE3
  0
TEXT
  5
CC01
  8
OUTLINE
  6
CONTINUOUS
 62
    50
 10
2136.5973919413982
 20
923.55541343422215
 30
0.0
 40
30.0
  1
(SOLID & SPRING)
  7
TITLE3
  0
ENDBLK
  5
CC03
  8
0
  0
BLOCK
  8
0
  2
*U15
 70
     1
 10
0.0
 20
0.0
 30
0.0
  3
*U15
  1

  0
TEXT
  5
CC05
  8
OUTLINE
  6
CONTINUOUS
 62
    50
 10
3053.8960213816249
 20
1008.555413434222
 30
0.0
 40
30.0
  1
357 MTG CTRS
  7
TITLE3
  0
ENDBLK
  5
CC07
  8
0
  0
BLOCK
  8
0
  2
*U16
 70
     1
 10
0.0
 20
0.0
 30
0.0
  3
*U16
  1

  0
TEXT
  5
CC09
  8
OUTLINE
  6
CONTINUOUS
 62
    50
 10
2118.8603576270671
 20
2502.925141218609
 30
0.0
 40
30.0
  1
1483 MTG CENTRES
  7
TITLE3
  0
ENDBLK
  5
CC0B
  8
0
  0
BLOCK
  8
0
  2
*U17
 70
     1
 10
0.0
 20
0.0
 30
0.0
  3
*U17
  1

  0
TEXT
  5
CC0D
  8
OUTLINE
  6
CONTINUOUS
 62
    50
 10
3075.685929538382
 20
2551.4740602129009
 30
0.0
 40
30.0
  1
319 MTG CTRS
  7
TITLE3
  0
ENDBLK
  5
CC0F
  8
0
  0
BLOCK
  8
0
  2
*U18
 70
     1
 10
0.0
 20
0.0
 30
0.0
  3
*U18
  1

  0
TEXT
  5
CC21
  8
DIM
  6
CONTINUOUS
 10
4200.1595768149882
 20
2245.4473467577059
 30
0.0
 40
21.565440000001718
  1
PUSH TUBE INTO RUBBER CONNECTOR
  7
TITLE3
  0
TEXT
  5
CC22
  8
DIM
  6
CONTINUOUS
 10
4200.1595768149882
 20
2209.5049467577028
 30
0.0
 40
21.565440000001718
  1
UNTIL FLUSH WITH END
  7
TITLE3
  0
ENDBLK
  5
CC24
  8
0
  0
BLOCK
  8
0
  2
*U19
 70
     1
 10
0.0
 20
0.0
 30
0.0
  3
*U19
  1

  0
TEXT
  5
CC26
  8
DIM
  6
CONTINUOUS
 62
    50
 10
828.30757024563081
 20
118.5918527965773
 30
0.0
 40
30.0
  1
FIT PLASTIC BUNG
  7
TITLE3
  0
ENDBLK
  5
CC28
  8
0
  0
BLOCK
  8
0
  2
*U20
 70
     1
 10
0.0
 20
0.0
 30
0.0
  3
*U20
  1

  0
SOLID
  5
CC2A
  8
OUTLINE
 62
    52
 10
499.05099197932248
 20
356.92746290416329
 30
0.0
 11
478.89999181101189
 21
379.70765588439849
 31
0.0
 12
505.34991942327372
 22
364.69428420092538
 32
0.0
 13
505.34991942327372
 23
364.69428420092538
 33
0.0
  0
POLYLINE
  5
CC2B
  8
OUTLINE
 62
    52
 66
     1
 10
0.0
 20
0.0
 30
0.0
  0
VERTEX
  5
CC2C
  8
OUTLINE
 62
    52
 10
502.20045570129821
 20
360.81087355254442
 30
0.0
  0
VERTEX
  5
CC2D
  8
OUTLINE
 62
    52
 10
783.89295452456633
 20
132.3569741004157
 30
0.0
  0
VERTEX
  5
CC2E
  8
OUTLINE
 62
    52
 10
807.96411659793011
 20
132.3569741004157
 30
0.0
  0
SEQEND
  5
CC2F
  8
OUTLINE
 62
    52
  0
ENDBLK
  5
CC31
  8
0
  0
BLOCK
  8
0
  2
*U21
 70
     1
 10
0.0
 20
0.0
 30
0.0
  3
*U21
  1

  0
TEXT
  5
CC33
  8
TEXT
  6
CONTINUOUS
 62
    52
 10
410.32856323958339
 20
791.31998621259663
 30
0.0
 40
30.0
  1
707
  7
TITLE3
  0
ENDBLK
  5
CC35
  8
0
  0
BLOCK
  8
0
  2
*U22
 70
     1
 10
0.0
 20
0.0
 30
0.0
  3
*U22
  1

  0
TEXT
  5
CC37
  8
TEXT
  6
CONTINUOUS
 62
    52
 10
337.47142038244078
 20
751.85907320053775
 30
0.0
 40
30.0
  1
MTG CTRS
  7
TITLE3
  0
ENDBLK
  5
CC39
  8
0
  0
BLOCK
  8
0
  2
*U23
 70
     1
 10
0.0
 20
0.0
 30
0.0
  3
*U23
  1

  0
TEXT
  5
CC3B
  8
OUTLINE
  6
CONTINUOUS
 62
    50
 10
4432.2354146871467
 20
592.62686021667696
 30
0.0
 40
30.0
  1
90
 50
90.0
  7
TITLE3
  0
ENDBLK
  5
CC3D
  8
0
  0
BLOCK
  8
0
  2
*U24
 70
     1
 10
0.0
 20
0.0
 30
0.0
  3
*U24
  1

  0
TEXT
  5
CC3F
  8
OUTLINE
  6
CONTINUOUS
 62
    50
 10
4529.3217461500126
 20
738.9652363168218
 30
0.0
 40
30.0
  1
45
 50
90.0
  7
TITLE3
  0
ENDBLK
  5
CC41
  8
0
  0
BLOCK
  8
0
  2
*U25
 70
     1
 10
0.0
 20
0.0
 30
0.0
  3
*U25
  1

  0
TEXT
  5
CC43
  8
OUTLINE
  6
CONTINUOUS
 62
    50
 10
3954.0259315589801
 20
607.99828878809546
 30
0.0
 40
30.0
  1
127
 50
90.0
  7
TITLE3
  0
ENDBLK
  5
CC45
  8
0
  0
BLOCK
  8
0
  2
*U26
 70
     1
 10
0.0
 20
0.0
 30
0.0
  3
*U26
  1

  0
SOLID
  5
CC47
  8
OUTLINE
 10
4895.272330596129
 20
102.683621106711
 30
0.0
 11
4884.213735637416
 21
131.0157138204367
 31
0.0
 12
4903.8633555325432
 22
107.80165691568391
 32
0.0
 13
4903.8633555325432
 23
107.80165691568391
 33
0.0
  0
POLYLINE
  5
CC48
  8
OUTLINE
 66
     1
 10
0.0
 20
0.0
 30
0.0
  0
VERTEX
  5
CC49
  8
OUTLINE
 10
4899.5678430643347
 20
105.2426390111974
 30
0.0
  0
VERTEX
  5
CC4A
  8
OUTLINE
 10
4962.2653210346916
 20
-0.0000003132918209
 30
0.0
  0
VERTEX
  5
CC4B
  8
OUTLINE
 10
5007.3842996722024
 20
-0.0000003132918209
 30
0.0
  0
SEQEND
  5
CC4C
  8
OUTLINE
  0
ENDBLK
  5
CC4E
  8
0
  0
BLOCK
  8
0
  2
*U27
 70
     1
 10
0.0
 20
0.0
 30
0.0
  3
*U27
  1

  0
TEXT
  5
CC50
  8
OUTLINE
  6
CONTINUOUS
 62
    50
 10
5027.3842996722033
 20
9.9999996867081755
 30
0.0
 40
30.0
  1
OPTIONAL
  7
TITLE3
  0
TEXT
  5
CC51
  8
OUTLINE
  6
CONTINUOUS
 62
    50
 10
5027.3842996722033
 20
-40.000000313291821
 30
0.0
 40
30.0
  1
FILTER
  7
TITLE3
  0
ENDBLK
  5
CC53
  8
0
  0
BLOCK
  8
0
  2
*U28
 70
     1
 10
0.0
 20
0.0
 30
0.0
  3
*U28
  1

  0
TEXT
  5
CC55
  8
OUTLINE
  6
CONTINUOUS
 62
    50
 10
399.44284895386971
 20
878.8492178320339
 30
0.0
 40
30.0
  1
876
  7
TITLE3
  0
ENDBLK
  5
CC57
  8
0
  0
BLOCK
  8
0
  2
*U29
 70
     1
 10
0.0
 20
0.0
 30
0.0
  3
*U29
  1

  0
TEXT
  5
CC59
  8
OUTLINE
  6
CONTINUOUS
 62
    50
 10
5046.785154308157
 20
635.77842987570079
 30
0.0
 40
30.0
  1
92
 50
90.0
  7
TITLE3
  0
ENDBLK
  5
CC5B
  8
0
  0
BLOCK
  8
0
  2
*U30
 70
     1
 10
0.0
 20
0.0
 30
0.0
  3
*U30
  1

  0
TEXT
  5
CC5D
  8
OUTLINE
  6
CONTINUOUS
 62
    50
 10
5046.785154308157
 20
327.14428524900961
 30
0.0
 40
30.0
  1
500
 50
90.0
  7
TITLE3
  0
ENDBLK
  5
CC5F
  8
0
  0
BLOCK
  8
0
  2
*U31
 70
     1
 10
0.0
 20
0.0
 30
0.0
  3
*U31
  1

  0
TEXT
  5
CC61
  8
OUTLINE
  6
CONTINUOUS
 62
    50
 10
1417.8599725826341
 20
2401.028101032613
 30
0.0
 40
30.0
  1
86
  7
TITLE3
  0
ENDBLK
  5
CC63
  8
0
  0
BLOCK
  8
0
  2
*U32
 70
     1
 10
0.0
 20
0.0
 30
0.0
  3
*U32
  1

  0
TEXT
  5
CC65
  8
OUTLINE
  6
CONTINUOUS
 62
    50
 10
2287.9231642387922
 20
2397.4992385494479
 30
0.0
 40
30.0
  1
1432
  7
TITLE3
  0
ENDBLK
  5
CC67
  8
0
  0
BLOCK
  8
0
  2
*U33
 70
     1
 10
0.0
 20
0.0
 30
0.0
  3
*U33
  1

  0
SOLID
  5
CC69
  8
TEXT
 10
3508.7007761924729
 20
1929.861547704809
 30
0.0
 11
3495.8431157352252
 21
1902.2992443256269
 31
0.0
 12
3499.0666420988341
 22
1932.541745508285
 32
0.0
 13
3499.0666420988341
 23
1932.541745508285
 33
0.0
  0
POLYLINE
  5
CC6A
  8
TEXT
 66
     1
 10
0.0
 20
0.0
 30
0.0
  0
VERTEX
  5
CC6B
  8
TEXT
 10
3503.883709145653
 20
1931.201646606547
 30
0.0
  0
VERTEX
  5
CC6C
  8
TEXT
 10
3607.956647271269
 20
2305.2981554988478
 30
0.0
  0
VERTEX
  5
CC6D
  8
TEXT
 10
3635.6722494097971
 20
2305.2981554988478
 30
0.0
  0
SEQEND
  5
CC6E
  8
TEXT
  0
ENDBLK
  5
CC70
  8
0
  0
BLOCK
  8
0
  2
*U34
 70
     1
 10
0.0
 20
0.0
 30
0.0
  3
*U34
  1

  0
TEXT
  5
CC72
  8
TEXT
  6
CONTINUOUS
 62
    50
 10
3655.6722494097962
 20
2290.2981554988469
 30
0.0
 40
30.0
  1
1 
  7
TITLE3
  0
TEXT
  5
CC73
  8
TEXT
  6
CONTINUOUS
 62
    50
 10
3710.6722494097971
 20
2308.7981554988469
 30
0.0
 40
21.0
  1
1
  7
TITLE3
  0
LINE
  5
CC74
  8
TEXT
  6
CONTINUOUS
 62
    50
 10
3705.6722494097962
 20
2305.2981554988478
 30
0.0
 11
3720.6722494097962
 21
2305.2981554988478
 31
0.0
  0
TEXT
  5
CC75
  8
TEXT
  6
CONTINUOUS
 62
    50
 10
3705.6722494097962
 20
2280.7981554988469
 30
0.0
 40
21.0
  1
4
  7
TITLE3
  0
TEXT
  5
CC76
  8
TEXT
  6
CONTINUOUS
 62
    50
 10
3726.6722494097971
 20
2290.2981554988469
 30
0.0
 40
30.0
  1
" BSP NIPPLE
  7
TITLE3
  0
ENDBLK
  5
CC78
  8
0
  0
BLOCK
  8
0
  2
*U35
 70
     1
 10
0.0
 20
0.0
 30
0.0
  3
*U35
  1

  0
TEXT
  5
CC7A
  8
OUTLINE
  6
CONTINUOUS
 62
    50
 10
4280.742307065987
 20
785.99468471430555
 30
0.0
 40
30.0
  1
335
  7
TITLE3
  0
ENDBLK
  5
CC7C
  8
0
  0
BLOCK
  8
0
  2
*U36
 70
     1
 10
0.0
 20
0.0
 30
0.0
  3
*U36
  1

  0
TEXT
  5
CC7E
  8
OUTLINE
  6
CONTINUOUS
 62
    50
 10
886.23246284151617
 20
1326.3193597332429
 30
0.0
 40
30.0
  1
975
  7
TITLE3
  0
ENDBLK
  5
CC80
  8
0
  0
BLOCK
  8
0
  2
*U37
 70
     1
 10
0.0
 20
0.0
 30
0.0
  3
*U37
  1

  0
TEXT
  5
CC82
  8
OUTLINE
  6
CONTINUOUS
 62
    50
 10
2540.3952125744759
 20
815.57330215534785
 30
0.0
 40
30.0
  1
300
 50
90.0
  7
TITLE3
  0
ENDBLK
  5
CC84
  8
0
  0
BLOCK
  8
0
  2
*U38
 70
     1
 10
0.0
 20
0.0
 30
0.0
  3
*U38
  1

  0
TEXT
  5
CC86
  8
OUTLINE
  6
CONTINUOUS
 62
    50
 10
2464.1101797448118
 20
788.31615929822635
 30
0.0
 40
30.0
  1
614
 50
90.0
  7
TITLE3
  0
ENDBLK
  5
CC88
  8
0
  0
BLOCK
  8
0
  2
*U39
 70
     1
 10
0.0
 20
0.0
 30
0.0
  3
*U39
  1

  0
TEXT
  5
CC8A
  8
OUTLINE
  6
CONTINUOUS
 62
    50
 10
215.9230567193799
 20
767.41837760910505
 30
0.0
 40
30.0
  1
655
 50
90.0
  7
TITLE3
  0
ENDBLK
  5
CC8C
  8
0
  0
BLOCK
  8
0
  2
*U40
 70
     1
 10
0.0
 20
0.0
 30
0.0
  3
*U40
  1

  0
TEXT
  5
CC8E
  8
OUTLINE
  6
CONTINUOUS
 62
    50
 10
2310.257974523935
 20
777.91024113031153
 30
0.0
 40
30.0
  1
635
 50
90.0
  7
TITLE3
  0
ENDBLK
  5
CC90
  8
0
  0
BLOCK
  8
0
  2
*U41
 70
     1
 10
0.0
 20
0.0
 30
0.0
  3
*U41
  1

  0
TEXT
  5
CC92
  8
OUTLINE
  6
CONTINUOUS
 62
    50
 10
339.44259282697072
 20
1326.3193597332429
 30
0.0
 40
30.0
  1
123
  7
TITLE3
  0
ENDBLK
  5
CC94
  8
0
  0
BLOCK
  8
0
  2
*U42
 70
     1
 10
0.0
 20
0.0
 30
0.0
  3
*U42
  1

  0
TEXT
  5
CC96
  8
OUTLINE
  6
CONTINUOUS
 62
    50
 10
859.25409337217343
 20
366.08454513686388
 30
0.0
 40
30.0
  1
1405 MTG. CENTERS
  7
TITLE3
  0
TEXT
  5
CC97
  8
OUTLINE
  6
CONTINUOUS
 62
    50
 10
884.25409337217343
 20
313.2274022797211
 30
0.0
 40
30.0
  1
(SOLID & SPRING)
  7
TITLE3
  0
ENDBLK
  5
CC99
  8
0
  0
BLOCK
  8
0
  2
*U43
 70
     1
 10
0.0
 20
0.0
 30
0.0
  3
*U43
  1

  0
TEXT
  5
CC9B
  8
OUTLINE
  6
CONTINUOUS
 62
    50
 10
1866.552722812401
 20
360.79175755345392
 30
0.0
 40
30.0
  1
357 MTG.
  7
TITLE3
  0
TEXT
  5
CC9C
  8
OUTLINE
  6
CONTINUOUS
 62
    50
 10
1910.838437098115
 20
310.79175755345392
 30
0.0
 40
30.0
  1
CTRS.
  7
TITLE3
  0
ENDBLK
  5
CC9E
  8
0
  0
BLOCK
  8
0
  2
*U44
 70
     1
 10
0.0
 20
0.0
 30
0.0
  3
*U44
  1

  0
TEXT
  5
CCA0
  8
OUTLINE
  6
CONTINUOUS
 62
    50
 10
859.37420191498427
 20
2425.841911095159
 30
0.0
 40
30.0
  1
1483 MTG. CENTRES
  7
TITLE3
  0
ENDBLK
  5
CCA2
  8
0
  0
BLOCK
  8
0
  2
*U45
 70
     1
 10
0.0
 20
0.0
 30
0.0
  3
*U45
  1

  0
TEXT
  5
CCA4
  8
OUTLINE
  6
CONTINUOUS
 62
    50
 10
1898.0793025148789
 20
2451.150712667853
 30
0.0
 40
30.0
  1
319 MTG
  7
TITLE3
  0
TEXT
  5
CCA5
  8
OUTLINE
  6
CONTINUOUS
 62
    50
 10
1939.50787394345
 20
2401.150712667853
 30
0.0
 40
30.0
  1
CTRS
  7
TITLE3
  0
ENDBLK
  5
CCA7
  8
0
  0
BLOCK
  8
0
  2
*U46
 70
     1
 10
0.0
 20
0.0
 30
0.0
  3
*U46
  1

  0
TEXT
  5
CCA9
  8
OUTLINE
  6
CONTINUOUS
 62
    50
 10
2995.2457425651392
 20
1016.2590164410821
 30
0.0
 40
30.0
  1
90
 50
90.0
  7
TITLE3
  0
ENDBLK
  5
CCAB
  8
0
  0
BLOCK
  8
0
  2
*U47
 70
     1
 10
0.0
 20
0.0
 30
0.0
  3
*U47
  1

  0
TEXT
  5
CCAD
  8
OUTLINE
  6
CONTINUOUS
 62
    50
 10
3092.3320740280051
 20
1162.597392541227
 30
0.0
 40
30.0
  1
45
 50
90.0
  7
TITLE3
  0
ENDBLK
  5
CCAF
  8
0
  0
BLOCK
  8
0
  2
*U48
 70
     1
 10
0.0
 20
0.0
 30
0.0
  3
*U48
  1

  0
TEXT
  5
CCB1
  8
OUTLINE
  6
CONTINUOUS
 62
    50
 10
2540.3952125744768
 20
1031.630445012501
 30
0.0
 40
30.0
  1
127
 50
90.0
  7
TITLE3
  0
ENDBLK
  5
CCB3
  8
0
  0
BLOCK
  8
0
  2
*U49
 70
     1
 10
0.0
 20
0.0
 30
0.0
  3
*U49
  1

  0
TEXT
  5
CCB5
  8
OUTLINE
  6
CONTINUOUS
 62
    50
 10
3609.7954821861508
 20
1059.410586100106
 30
0.0
 40
30.0
  1
92
 50
90.0
  7
TITLE3
  0
ENDBLK
  5
CCB7
  8
0
  0
BLOCK
  8
0
  2
*U50
 70
     1
 10
0.0
 20
0.0
 30
0.0
  3
*U50
  1

  0
TEXT
  5
CCB9
  8
OUTLINE
  6
CONTINUOUS
 62
    50
 10
3609.7954821861508
 20
750.77644147341505
 30
0.0
 40
30.0
  1
500
 50
90.0
  7
TITLE3
  0
ENDBLK
  5
CCBB
  8
0
  0
BLOCK
  8
0
  2
*U51
 70
     1
 10
0.0
 20
0.0
 30
0.0
  3
*U51
  1

  0
TEXT
  5
CCBD
  8
OUTLINE
  6
CONTINUOUS
 62
    50
 10
165.51667401340899
 20
2340.0249119739719
 30
0.0
 40
30.0
  1
86
  7
TITLE3
  0
ENDBLK
  5
CCBF
  8
0
  0
BLOCK
  8
0
  2
*U52
 70
     1
 10
0.0
 20
0.0
 30
0.0
  3
*U52
  1

  0
TEXT
  5
CCC1
  8
OUTLINE
  6
CONTINUOUS
 62
    50
 10
1035.579865669567
 20
2336.4960494908069
 30
0.0
 40
30.0
  1
1432
  7
TITLE3
  0
ENDBLK
  5
CCC3
  8
0
  0
BLOCK
  8
0
  2
*U53
 70
     1
 10
0.0
 20
0.0
 30
0.0
  3
*U53
  1

  0
TEXT
  5
CCC5
  8
OUTLINE
  6
CONTINUOUS
 62
    50
 10
2843.7526349439818
 20
1209.626840938711
 30
0.0
 40
30.0
  1
335
  7
TITLE3
  0
ENDBLK
  5
CCC7
  8
0
  0
BLOCK
  8
0
  2
*U54
 70
     1
 10
0.0
 20
0.0
 30
0.0
  3
*U54
  1

  0
TEXT
  5
CCC9
  8
OUTLINE
  6
CONTINUOUS
 62
    52
 10
222.6658912620218
 20
1746.1822984266651
 30
0.0
 40
30.0
  1
876 O/A
 50
90.0
  7
TITLE3
  0
ENDBLK
  5
CCCB
  8
0
  0
BLOCK
  8
0
  2
*U55
 70
     1
 10
0.0
 20
0.0
 30
0.0
  3
*U55
  1

  0
TEXT
  5
CCCD
  8
OUTLINE
  6
CONTINUOUS
 62
    52
 10
2316.6514460683838
 20
1794.196584140951
 30
0.0
 40
30.0
  1
670
 50
90.0
  7
TITLE3
  0
ENDBLK
  5
CCCF
  8
0
  0
BLOCK
  8
0
  2
*U56
 70
     1
 10
0.0
 20
0.0
 30
0.0
  3
*U56
  1

  0
TEXT
  5
CCD1
  8
OUTLINE
  6
CONTINUOUS
 62
    52
 10
1201.4098656695669
 20
1253.8571919069159
 30
0.0
 40
30.0
  1
1930
  7
TITLE3
  0
ENDBLK
  5
CCD3
  8
0
  0
BLOCK
  8
0
  2
*U57
 70
     1
 10
0.0
 20
0.0
 30
0.0
  3
*U57
  1

  0
TEXT
  5
CCD5
  8
OUTLINE
  6
CONTINUOUS
 62
    52
 10
2947.8669206582681
 20
1340.981959060837
 30
0.0
 40
30.0
  1
707 MTG.
  7
TITLE3
  0
ENDBLK
  5
CCD7
  8
0
  0
BLOCK
  8
0
  2
*U58
 70
     1
 10
0.0
 20
0.0
 30
0.0
  3
*U58
  1

  0
TEXT
  5
CCD9
  8
OUTLINE
  6
CONTINUOUS
 62
    52
 10
2992.1526349439841
 20
1289.2657855944819
 30
0.0
 40
30.0
  1
CTRS.
  7
TITLE3
  0
ENDBLK
  5
CCDB
  8
0
  0
BLOCK
  8
0
  2
*U59
 70
     1
 10
0.0
 20
0.0
 30
0.0
  3
*U59
  1

  0
TEXT
  5
CCDD
  8
OUTLINE
  6
CONTINUOUS
 62
    52
 10
267.45544900537408
 20
968.70120372376869
 30
0.0
 40
30.0
  1
98
 50
90.0
  7
TITLE3
  0
ENDBLK
  5
CCDF
  8
0
  0
BLOCK
  8
0
  2
*U60
 70
     1
 10
0.0
 20
0.0
 30
0.0
  3
*U60
  1

  0
TEXT
  5
CCE1
  8
OUTLINE
  6
CONTINUOUS
 62
    52
 10
1732.1223869816949
 20
1011.194730726842
 30
0.0
 40
30.0
  1
169
 50
90.0
  7
TITLE3
  0
ENDBLK
  5
CCE3
  8
0
  0
ENDSEC
  0
SECTION
  2
ENTITIES
  0
INSERT
  5
8022
  8
TEXT
  2
NEW_BLOCK
 10
2879.5321338436761
 20
2078.5498280289471
 30
0.0
 41
0.8399999999996906
 42
0.8400000000001455
 43
0.84
  0
TEXT
  5
8023
  8
TEXT
 10
2674.8886151958659
 20
348.4363829409304
 30
0.0
 40
50.0
  1
temperzone HWP 290K
  7
TITLE5
 72
     1
 11
3108.2219485291989
 21
348.4363829409304
 31
0.0
  0
TEXT
  5
8024
  8
TEXT
 10
3207.461112741003
 20
157.46336081180019
 30
0.0
 40
30.0
  1
HWP 290K
 41
1.159155215268916
  7
TITLE3
 72
     5
 11
3472.4108762310411
 21
157.46336081180019
 31
0.0
  0
TEXT
  5
8030
  8
TEXT
 10
2714.5390906198531
 20
204.82773366023031
 30
0.0
 40
25.0
  1
12.05.08
 41
1.033846153846153
  7
TITLE3
 72
     5
 11
2874.5390906198531
 21
204.82773366023031
 31
0.0
  0
TEXT
  5
8031
  8
TEXT
 10
2764.8790347331278
 20
142.32634639303981
 30
0.0
 40
25.0
  1
1:10
  7
TITLE3
  0
LINE
  5
8BF4
  8
OVERLAY-A3
 10
134.09117925244391
 20
81.219636710357932
 30
0.0
 11
3690.894915655464
 21
81.219636710357932
 31
0.0
  0
LINE
  5
8BF5
  8
OVERLAY-A3
 10
3690.894915655464
 20
81.219636710357932
 30
0.0
 11
3690.894915655464
 21
2538.1705418093279
 31
0.0
  0
LINE
  5
8BF6
  8
OVERLAY-A3
 10
3690.894915655464
 20
2538.1705418093279
 30
0.0
 11
134.09117925244391
 21
2538.170541809327
 31
0.0
  0
LINE
  5
8BF7
  8
OVERLAY-A3
 10
134.09117925244391
 20
2538.170541809327
 30
0.0
 11
134.09117925244391
 21
81.219636710357932
 31
0.0
  0
INSERT
  5
8C43
  8
DIM
  6
CONTINUOUS
  2
A$C70722A8B
 10
3625.1135480174289
 20
432.67639784731432
 30
0.0
  0
LINE
  5
B61D
  8
OUTLINE
  6
CONTINUOUS
 10
317.60986566954489
 20
516.54473072679855
 30
0.0
 11
317.60986566954318
 21
1130.544730726798
 31
0.0
  0
LINE
  5
B622
  8
OUTLINE
  6
CONTINUOUS
 10
2189.009865669545
 20
1130.5447307269119
 30
0.0
 11
287.60986566951942
 21
1130.5447307267971
 31
0.0
  0
LINE
  5
B624
  8
OUTLINE
  6
CONTINUOUS
 10
287.60986566951942
 20
1121.3447307267979
 30
0.0
 11
287.60986566951942
 21
1130.5447307267971
 31
0.0
  0
LINE
  5
B728
  8
OUTLINE
  6
CONTINUOUS
 10
1413.2993751476081
 20
702.94473072677795
 30
0.0
 11
438.29937514760871
 21
702.94473072677795
 31
0.0
  0
LINE
  5
B72B
  8
OUTLINE
  6
CONTINUOUS
 10
438.29937514760769
 20
1002.9447307267779
 30
0.0
 11
1413.2993751476081
 21
1002.944730726777
 31
0.0
  0
LINE
  5
B72E
  8
OUTLINE
  6
CONTINUOUS
 10
438.29937514760871
 20
702.94473072677795
 30
0.0
 11
438.29937514760769
 21
1002.9447307267779
 31
0.0
  0
LINE
  5
B73E
  8
OUTLINE
  6
CONTINUOUS
 10
1413.2993751476081
 20
1002.944730726777
 30
0.0
 11
1413.2993751476081
 21
702.94473072677795
 31
0.0
  0
LINE
  5
B76B
  8
OUTLINE
  6
CONTINUOUS
 10
291.20607762491181
 20
516.54473072679775
 30
0.0
 11
2216.8215635318379
 21
516.54473072679741
 31
0.0
  0
LINE
  5
B7D3
  8
OUTLINE
  6
CONTINUOUS
 10
1808.8162250894261
 20
944.99352169069152
 30
0.0
 11
1808.8162250894241
 21
564.99352169069232
 31
0.0
  0
LINE
  5
B7E5
  8
OUTLINE
  6
CONTINUOUS
 10
1808.8162250897669
 20
564.09529028779605
 30
0.0
 11
1808.8162250897669
 21
946.49529028779614
 31
0.0
  0
LINE
  5
B7E6
  8
OUTLINE
  6
CONTINUOUS
 10
1808.8162250897681
 20
946.49529028779523
 30
0.0
 11
2159.4146890785469
 21
946.49529028779614
 31
0.0
  0
LINE
  5
B7E7
  8
OUTLINE
  6
CONTINUOUS
 10
1808.8162250897669
 20
946.49529028779614
 30
0.0
 11
2173.8162250898281
 21
946.49529028779614
 31
0.0
  0
LINE
  5
B7F8
  8
OUTLINE
  6
CONTINUOUS
 10
2189.0098656695441
 20
516.54473072679855
 30
0.0
 11
2189.009865669545
 21
1130.544730726798
 31
0.0
  0
LINE
  5
B7FD
  8
OUTLINE
  6
CONTINUOUS
 10
2217.8098656695679
 20
1121.3447307267979
 30
0.0
 11
2217.8098656695679
 21
1130.5447307267971
 31
0.0
  0
LINE
  5
B800
  8
OUTLINE
  6
CONTINUOUS
 10
2189.009865669545
 20
1130.544730726798
 30
0.0
 11
2217.8098656695679
 21
1130.5447307267971
 31
0.0
  0
LINE
  5
B803
  8
OUTLINE
  6
CONTINUOUS
 10
2189.0098656695441
 20
497.37428387691762
 30
0.0
 11
314.49505951810443
 21
476.43488163427003
 31
0.0
  0
LINE
  5
B80E
  8
OUTLINE
  6
CONTINUOUS
 10
2215.9205788295249
 20
507.67520387506551
 30
0.0
 11
2216.9205164445261
 21
507.68637374999531
 31
0.0
  0
LINE
  5
B810
  8
OUTLINE
  6
CONTINUOUS
 10
2216.9205164445261
 20
507.68637374999531
 30
0.0
 11
2216.8215635318379
 21
516.54473072679741
 31
0.0
  0
LINE
  5
B814
  8
OUTLINE
  6
CONTINUOUS
 10
291.20607762491181
 20
507.17635250092178
 30
0.0
 11
2215.9205788295249
 21
507.67520387506551
 31
0.0
  0
LINE
  5
B8F7
  8
OUTLINE
  6
CONTINUOUS
 10
2194.6098656695658
 20
2142.16801271238
 30
0.0
 11
2194.6098656695672
 21
1523.3680127123789
 31
0.0
  0
LINE
  5
B911
  8
OUTLINE
  6
CONTINUOUS
 10
2151.8098656695679
 20
1503.0680127123551
 30
0.0
 11
2143.8098656695679
 21
1503.0680127123551
 31
0.0
  0
ARC
  5
B912
  8
OUTLINE
  6
CONTINUOUS
 10
2143.8098656695679
 20
1509.0680127123551
 30
0.0
 40
6.0
 50
90.0
 51
270.0
  0
ARC
  5
B913
  8
OUTLINE
  6
CONTINUOUS
 10
2151.8098656695679
 20
1509.0680127123551
 30
0.0
 40
6.0
 50
270.0
 51
90.0
  0
LINE
  5
B915
  8
OUTLINE
  6
CONTINUOUS
 10
1795.009865669567
 20
1503.0680127123551
 30
0.0
 11
1787.009865669567
 21
1503.0680127123551
 31
0.0
  0
ARC
  5
B916
  8
OUTLINE
  6
CONTINUOUS
 10
1795.009865669567
 20
1509.0680127123551
 30
0.0
 40
6.0
 50
270.0
 51
90.0
  0
ARC
  5
B917
  8
OUTLINE
  6
CONTINUOUS
 10
1787.009865669567
 20
1509.0680127123551
 30
0.0
 40
6.0
 50
90.0
 51
270.0
  0
ARC
  5
B91C
  8
OUTLINE
  6
CONTINUOUS
 10
380.46974964627589
 20
1509.0680127123551
 30
0.0
 40
6.0
 50
90.0
 51
270.0
  0
ARC
  5
B91D
  8
OUTLINE
  6
CONTINUOUS
 10
388.46974964627589
 20
1509.0680127123551
 30
0.0
 40
6.0
 50
270.0
 51
90.0
  0
LINE
  5
B91E
  8
OUTLINE
  6
CONTINUOUS
 10
380.46974964627589
 20
1503.0680127123551
 30
0.0
 11
388.46974964627589
 21
1503.0680127123551
 31
0.0
  0
LINE
  5
B91F
  8
OUTLINE
  6
CONTINUOUS
 10
388.46974964627589
 20
1515.0680127123551
 30
0.0
 11
380.46974964627589
 21
1515.0680127123551
 31
0.0
  0
ARC
  5
B92B
  8
OUTLINE
  6
CONTINUOUS
 10
340.27443613265092
 20
2155.2680127124058
 30
0.0
 40
6.0
 50
90.0
 51
270.0
  0
ARC
  5
B92C
  8
OUTLINE
  6
CONTINUOUS
 10
348.27443613265092
 20
2155.2680127124058
 30
0.0
 40
6.0
 50
270.0
 51
90.0
  0
LINE
  5
B92D
  8
OUTLINE
  6
CONTINUOUS
 10
340.27443613265092
 20
2161.2680127124049
 30
0.0
 11
348.27443613265092
 21
2161.2680127124049
 31
0.0
  0
LINE
  5
B92E
  8
OUTLINE
  6
CONTINUOUS
 10
348.27443613265092
 20
2149.2680127124049
 30
0.0
 11
340.27443613265092
 21
2149.2680127124049
 31
0.0
  0
LINE
  5
B931
  8
OUTLINE
  6
CONTINUOUS
 10
2145.0098656695718
 20
2149.2680127124049
 30
0.0
 11
2153.0098656695718
 21
2149.2680127124049
 31
0.0
  0
LINE
  5
B932
  8
OUTLINE
  6
CONTINUOUS
 10
2153.0098656695718
 20
2161.2680127124049
 30
0.0
 11
2145.0098656695718
 21
2161.2680127124049
 31
0.0
  0
ARC
  5
B933
  8
OUTLINE
  6
CONTINUOUS
 10
2145.0098656695718
 20
2155.2680127124058
 30
0.0
 40
6.0
 50
90.0
 51
270.0
  0
ARC
  5
B934
  8
OUTLINE
  6
CONTINUOUS
 10
2153.0098656695718
 20
2155.2680127124058
 30
0.0
 40
6.0
 50
270.0
 51
90.0
  0
LINE
  5
B949
  8
OUTLINE
 10
288.60986566956848
 20
1522.768012712379
 30
0.0
 11
313.60986566956677
 21
1522.768012712379
 31
0.0
  0
LINE
  5
B94F
  8
OUTLINE
  6
CONTINUOUS
 10
288.60986566956848
 20
1522.768012712379
 30
0.0
 11
288.60986566957041
 21
2142.7680127123808
 31
0.0
  0
LINE
  5
B950
  8
OUTLINE
  6
CONTINUOUS
 10
312.60986566956763
 20
1522.768012712379
 30
0.0
 11
312.60986566956763
 21
2142.7680127123799
 31
0.0
  0
LINE
  5
B951
  8
OUTLINE
  6
CONTINUOUS
 10
2218.6098656695649
 20
2142.7680127123799
 30
0.0
 11
288.60986566957041
 21
2142.7680127123808
 31
0.0
  0
LINE
  5
B952
  8
OUTLINE
  6
CONTINUOUS
 10
2194.6098656695672
 20
2142.7680127123799
 30
0.0
 11
2194.6098656695672
 21
1522.768012712379
 31
0.0
  0
LINE
  5
B954
  8
OUTLINE
  6
CONTINUOUS
 10
312.60986566956763
 20
1522.7680127123799
 30
0.0
 11
312.60986566956677
 21
2142.7680127123799
 31
0.0
  0
LINE
  5
B956
  8
OUTLINE
  6
CONTINUOUS
 10
2194.6098656695658
 20
1497.7680127123799
 30
0.0
 11
313.60986566956677
 21
1497.7680127123799
 31
0.0
  0
LINE
  5
B959
  8
OUTLINE
  6
CONTINUOUS
 10
2194.6098656695672
 20
1522.7680127123799
 30
0.0
 11
2194.6098656695672
 21
1497.7680127123799
 31
0.0
  0
LINE
  5
B95A
  8
OUTLINE
 10
313.60986566956677
 20
1497.768012712379
 30
0.0
 11
313.60986566956677
 21
1522.7680127123799
 31
0.0
  0
LINE
  5
B95C
  8
OUTLINE
  6
CONTINUOUS
 10
2218.6098656695658
 20
1522.7680127123799
 30
0.0
 11
2218.6098656695649
 21
2142.7680127123799
 31
0.0
  0
LINE
  5
B95F
  8
OUTLINE
  6
CONTINUOUS
 10
2194.6098656695658
 20
1497.7680127123799
 30
0.0
 11
2194.6098656695672
 21
2167.7680127123781
 31
0.0
  0
LINE
  5
B961
  8
OUTLINE
  6
CONTINUOUS
 10
2194.6098656695672
 20
2167.7680127123781
 30
0.0
 11
313.60986566956677
 21
2167.7680127123799
 31
0.0
  0
LINE
  5
B968
  8
OUTLINE
 10
2194.6098656695672
 20
2142.7680127123781
 30
0.0
 11
2194.6098656695672
 21
2167.768012712379
 31
0.0
  0
LINE
  5
B969
  8
OUTLINE
  6
CONTINUOUS
 10
313.60986566956677
 20
2167.7680127123799
 30
0.0
 11
313.60986566956677
 21
2142.7680127123799
 31
0.0
  0
LINE
  5
B9F1
  8
OUTLINE
  6
CONTINUOUS
 10
435.41389141294508
 20
1409.168012712378
 30
0.0
 11
1411.703891412945
 21
1409.168012712378
 31
0.0
  0
LINE
  5
B9F4
  8
OUTLINE
  6
CONTINUOUS
 10
435.41389141294508
 20
1409.168012712378
 30
0.0
 11
435.41389141294508
 21
1497.768012712379
 31
0.0
  0
LINE
  5
B9FB
  8
OUTLINE
  6
CONTINUOUS
 10
1411.703891412945
 20
1497.7680127123799
 30
0.0
 11
1411.703891412945
 21
1409.168012712378
 31
0.0
  0
LINE
  5
BAA8
  8
OUTLINE
  6
CONTINUOUS
 10
1808.8162250894279
 20
1430.5680127123801
 30
0.0
 11
2173.816225089427
 21
1430.5680127123801
 31
0.0
  0
LINE
  5
BAAB
  8
OUTLINE
  6
CONTINUOUS
 10
1808.8162250894079
 20
1457.768012712379
 30
0.0
 11
1808.8162250894279
 21
1430.5680127123801
 31
0.0
  0
LINE
  5
BAAF
  8
OUTLINE
  6
CONTINUOUS
 10
2171.8098656695452
 20
2167.7680127123781
 30
0.0
 11
2171.8098656695452
 21
2207.7680127123799
 31
0.0
  0
LINE
  5
BAB0
  8
OUTLINE
  6
CONTINUOUS
 10
2123.8098656695452
 20
2167.768012712379
 30
0.0
 11
2123.8098656695452
 21
2207.7680127123808
 31
0.0
  0
LINE
  5
BAB1
  8
OUTLINE
  6
CONTINUOUS
 10
2171.8098656695452
 20
2207.7680127123799
 30
0.0
 11
2123.8098656695452
 21
2207.7680127123808
 31
0.0
  0
CIRCLE
  5
BAB2
  8
OUTLINE
  6
CONTINUOUS
 10
2147.8098656695452
 20
2187.7680127123799
 30
0.0
 40
9.5
  0
LINE
  5
BAB3
  8
OUTLINE
  6
CONTINUOUS
 10
369.87443613262769
 20
2167.7680127123799
 30
0.0
 11
369.87443613262769
 21
2207.7680127123799
 31
0.0
  0
LINE
  5
BAB4
  8
OUTLINE
  6
CONTINUOUS
 10
321.87443613262769
 20
2167.7680127123808
 30
0.0
 11
321.87443613262769
 21
2207.7680127123808
 31
0.0
  0
LINE
  5
BAB5
  8
OUTLINE
  6
CONTINUOUS
 10
369.87443613262769
 20
2207.7680127123799
 30
0.0
 11
321.87443613262769
 21
2207.7680127123808
 31
0.0
  0
CIRCLE
  5
BAB6
  8
OUTLINE
  6
CONTINUOUS
 10
345.87443613262769
 20
2187.7680127123799
 30
0.0
 40
9.5
  0
LINE
  5
BAB7
  8
OUTLINE
  6
CONTINUOUS
 10
2171.8098656695452
 20
1497.7680127123799
 30
0.0
 11
2171.8098656695452
 21
1457.7680127123799
 31
0.0
  0
LINE
  5
BAB8
  8
OUTLINE
  6
CONTINUOUS
 10
2123.8098656695452
 20
1497.7680127123799
 30
0.0
 11
2123.8098656695452
 21
1457.768012712379
 31
0.0
  0
LINE
  5
BAB9
  8
OUTLINE
  6
CONTINUOUS
 10
2171.8098656695452
 20
1457.7680127123799
 30
0.0
 11
2123.8098656695452
 21
1457.768012712379
 31
0.0
  0
CIRCLE
  5
BABA
  8
OUTLINE
  6
CONTINUOUS
 10
2147.8098656695452
 20
1477.7680127123799
 30
0.0
 40
9.5
  0
LINE
  5
BABB
  8
OUTLINE
  6
CONTINUOUS
 10
1815.0098656695429
 20
1497.7680127123799
 30
0.0
 11
1815.0098656695429
 21
1457.7680127123799
 31
0.0
  0
LINE
  5
BABC
  8
OUTLINE
  6
CONTINUOUS
 10
1767.009865669542
 20
1497.7680127123799
 30
0.0
 11
1767.009865669542
 21
1457.768012712379
 31
0.0
  0
LINE
  5
BABD
  8
OUTLINE
  6
CONTINUOUS
 10
1815.0098656695429
 20
1457.7680127123799
 30
0.0
 11
1767.009865669542
 21
1457.768012712379
 31
0.0
  0
CIRCLE
  5
BABE
  8
OUTLINE
  6
CONTINUOUS
 10
1791.0098656695429
 20
1477.7680127123799
 30
0.0
 40
9.5
  0
LINE
  5
BABF
  8
OUTLINE
  6
CONTINUOUS
 10
410.06974964623072
 20
1497.768012712379
 30
0.0
 11
410.06974964623072
 21
1457.7680127123799
 31
0.0
  0
LINE
  5
BAC0
  8
OUTLINE
  6
CONTINUOUS
 10
362.06974964623078
 20
1497.768012712379
 30
0.0
 11
362.06974964623078
 21
1457.768012712379
 31
0.0
  0
LINE
  5
BAC1
  8
OUTLINE
  6
CONTINUOUS
 10
410.06974964623072
 20
1457.7680127123799
 30
0.0
 11
362.06974964623078
 21
1457.768012712379
 31
0.0
  0
CIRCLE
  5
BAC2
  8
OUTLINE
  6
CONTINUOUS
 10
386.06974964623078
 20
1477.7680127123799
 30
0.0
 40
9.5
  0
LINE
  5
BAC3
  8
OUTLINE
 62
    52
 10
1411.703891412945
 20
1386.9680127123779
 30
0.0
 11
1411.703891412945
 21
1321.3193597332429
 31
0.0
  0
LINE
  5
BAC4
  8
OUTLINE
 62
    52
 10
466.6138914129441
 20
1341.3193597332429
 30
0.0
 11
866.23246284151605
 21
1341.3193597332429
 31
0.0
  0
LINE
  5
BAC5
  8
OUTLINE
 62
    52
 10
1381.703891412945
 20
1341.3193597332429
 30
0.0
 11
983.37531998437316
 21
1341.3193597332429
 31
0.0
  0
SOLID
  5
BAC6
  8
OUTLINE
 62
    52
 10
466.6138914129441
 20
1346.3193597332429
 30
0.0
 11
466.6138914129441
 21
1336.3193597332429
 31
0.0
 12
436.61389141294399
 22
1341.3193597332429
 32
0.0
 13
436.61389141294399
 23
1341.3193597332429
 33
0.0
  0
SOLID
  5
BAC7
  8
OUTLINE
 62
    52
 10
1381.703891412945
 20
1346.3193597332429
 30
0.0
 11
1381.703891412945
 21
1336.3193597332429
 31
0.0
 12
1411.703891412945
 22
1341.3193597332429
 32
0.0
 13
1411.703891412945
 23
1341.3193597332429
 33
0.0
  0
INSERT
  5
BAC8
  8
TEXT
  6
CONTINUOUS
  2
*U36
 10
0.0
 20
0.0
 30
0.0
  0
LINE
  5
BB32
  8
OUTLINE
  6
CONTINUOUS
 10
2743.6240635154122
 20
516.54473072679775
 30
0.0
 11
3356.6240635154122
 21
516.54473072679775
 31
0.0
  0
LINE
  5
BB33
  8
OUTLINE
  6
CONTINUOUS
 10
3385.4240635154119
 20
1130.5447307267959
 30
0.0
 11
2714.8240635154111
 21
1130.5447307267959
 31
0.0
  0
LINE
  5
BB36
  8
OUTLINE
  6
CONTINUOUS
 10
2743.6240635154122
 20
477.44598912419991
 30
0.0
 11
2743.6240635154099
 21
1130.5447307267959
 31
0.0
  0
LINE
  5
BB38
  8
OUTLINE
  6
CONTINUOUS
 10
2714.8240635154089
 20
1122.5447307267959
 30
0.0
 11
2714.8240635154111
 21
1130.5447307267959
 31
0.0
  0
LINE
  5
BB3A
  8
OUTLINE
  6
CONTINUOUS
 10
3356.6240635154122
 20
1130.5447307267959
 30
0.0
 11
3356.6240635154122
 21
477.44598912419889
 31
0.0
  0
LINE
  5
BB3C
  8
OUTLINE
  6
CONTINUOUS
 10
3385.4240635154119
 20
1130.5447307267959
 30
0.0
 11
3385.4240635154119
 21
1122.5447307267959
 31
0.0
  0
LINE
  5
BB4F
  8
OUTLINE
  6
CONTINUOUS
 10
2743.6240635154109
 20
516.54473072679775
 30
0.0
 11
2720.1945677268541
 21
516.54473072679775
 31
0.0
  0
LINE
  5
BB50
  8
OUTLINE
  6
CONTINUOUS
 10
3356.6240635154122
 20
516.54473072679775
 30
0.0
 11
3368.6240635154122
 21
516.54473072679775
 31
0.0
  0
CIRCLE
  5
BB51
  8
OUTLINE
  6
CONTINUOUS
 10
3049.8240635154111
 20
1085.5447307267959
 30
0.0
 40
24.0
  0
CIRCLE
  5
BB52
  8
OUTLINE
  6
CONTINUOUS
 10
3049.8240635154111
 20
995.54473072679582
 30
0.0
 40
24.0
  0
LINE
  5
BB5F
  8
OUTLINE
  6
CONTINUOUS
 10
2625.6240635154109
 20
1004.1447307267759
 30
0.0
 11
2625.6240635154099
 21
704.14473072677674
 31
0.0
  0
LINE
  5
BB63
  8
OUTLINE
  6
CONTINUOUS
 10
2625.6240635154109
 20
1004.1447307267759
 30
0.0
 11
2743.6240635154122
 21
1004.1447307267759
 31
0.0
  0
LINE
  5
BB67
  8
OUTLINE
  6
HIDDEN
 10
2743.6240635154109
 20
704.14473072677583
 30
0.0
 11
2651.2240635154121
 21
704.14473072677674
 31
0.0
  0
LINE
  5
BB7F
  8
OUTLINE
  6
CONTINUOUS
 10
2651.2240635154121
 20
946.49529028779523
 30
0.0
 11
2743.6240635154099
 21
946.49529028779546
 31
0.0
  0
LINE
  5
BB80
  8
OUTLINE
  6
CONTINUOUS
 10
2651.2240635154089
 20
564.09529028779548
 30
0.0
 11
2743.6240635154122
 21
564.09529028779548
 31
0.0
  0
LINE
  5
BB84
  8
OUTLINE
  6
CONTINUOUS
 10
2720.2950966012172
 20
507.5452921917896
 30
0.0
 11
2720.1945677268541
 21
516.54473072679775
 31
0.0
  0
LINE
  5
BB87
  8
OUTLINE
  6
CONTINUOUS
 10
3356.6240635154122
 20
516.54473072679775
 30
0.0
 11
3381.6535593039721
 21
516.54473072679775
 31
0.0
  0
LINE
  5
BB8C
  8
OUTLINE
  6
CONTINUOUS
 10
3381.5530304296062
 20
507.5452921917896
 30
0.0
 11
3381.6535593039721
 21
516.54473072679775
 31
0.0
  0
LINE
  5
BB8E
  8
OUTLINE
  6
CONTINUOUS
 10
2743.6240635154122
 20
477.44598912419991
 30
0.0
 11
3356.6240635154122
 21
477.44598912419889
 31
0.0
  0
LINE
  5
BB98
  8
OUTLINE
 62
    52
 10
2610.5629028347012
 20
704.14473072677674
 30
0.0
 11
2505.3952125744768
 21
704.14473072677674
 31
0.0
  0
LINE
  5
BB99
  8
OUTLINE
 62
    52
 10
2525.3952125744781
 20
974.14473072677583
 30
0.0
 11
2525.3952125744781
 21
912.71615929820484
 31
0.0
  0
LINE
  5
BB9A
  8
OUTLINE
 62
    52
 10
2525.3952125744781
 20
734.14473072677663
 30
0.0
 11
2525.3952125744781
 21
795.57330215534739
 31
0.0
  0
SOLID
  5
BB9B
  8
OUTLINE
 62
    52
 10
2520.3952125744781
 20
974.14473072677583
 30
0.0
 11
2530.3952125744768
 21
974.14473072677583
 31
0.0
 12
2525.3952125744781
 22
1004.1447307267759
 32
0.0
 13
2525.3952125744781
 23
1004.1447307267759
 33
0.0
  0
SOLID
  5
BB9C
  8
OUTLINE
 62
    52
 10
2520.3952125744781
 20
734.14473072677663
 30
0.0
 11
2530.3952125744768
 21
734.14473072677663
 31
0.0
 12
2525.3952125744781
 22
704.14473072677674
 32
0.0
 13
2525.3952125744781
 23
704.14473072677674
 33
0.0
  0
INSERT
  5
BB9D
  8
TEXT
  6
CONTINUOUS
  2
*U37
 10
0.0
 20
0.0
 30
0.0
  0
LINE
  5
BB9E
  8
OUTLINE
 62
    52
 10
2694.8240635154111
 20
1130.5447307267971
 30
0.0
 11
2429.1101797448118
 21
1130.5447307267971
 31
0.0
  0
LINE
  5
BB9F
  8
OUTLINE
 62
    52
 10
2711.2575651109692
 20
516.54473072679775
 30
0.0
 11
2429.1101797448118
 21
516.54473072679775
 31
0.0
  0
LINE
  5
BBA0
  8
OUTLINE
 62
    52
 10
2449.1101797448118
 20
1100.5447307267971
 30
0.0
 11
2449.1101797448118
 21
881.17330215536867
 31
0.0
  0
LINE
  5
BBA1
  8
OUTLINE
 62
    52
 10
2449.1101797448118
 20
546.54473072679775
 30
0.0
 11
2449.1101797448118
 21
768.31615929822578
 31
0.0
  0
SOLID
  5
BBA2
  8
OUTLINE
 62
    52
 10
2444.1101797448118
 20
1100.5447307267971
 30
0.0
 11
2454.1101797448118
 21
1100.5447307267971
 31
0.0
 12
2449.1101797448118
 22
1130.5447307267971
 32
0.0
 13
2449.1101797448118
 23
1130.5447307267971
 33
0.0
  0
SOLID
  5
BBA3
  8
OUTLINE
 62
    52
 10
2444.1101797448118
 20
546.54473072679775
 30
0.0
 11
2454.1101797448118
 21
546.54473072679775
 31
0.0
 12
2449.1101797448118
 22
516.54473072679775
 32
0.0
 13
2449.1101797448118
 23
516.54473072679775
 33
0.0
  0
INSERT
  5
BBA4
  8
TEXT
  6
CONTINUOUS
  2
*U38
 10
0.0
 20
0.0
 30
0.0
  0
LINE
  5
BC45
  8
OUTLINE
 62
    52
 10
267.60986566951942
 20
1130.5447307267971
 30
0.0
 11
180.9230567193799
 21
1130.5447307267971
 31
0.0
  0
LINE
  5
BC46
  8
OUTLINE
 62
    52
 10
280.71328147520029
 20
476.43488163427003
 30
0.0
 11
180.9230567193799
 21
476.43488163427003
 31
0.0
  0
LINE
  5
BC47
  8
OUTLINE
 62
    52
 10
200.9230567193799
 20
1100.5447307267971
 30
0.0
 11
200.9230567193799
 21
863.84694903767604
 31
0.0
  0
LINE
  5
BC48
  8
OUTLINE
 62
    52
 10
200.9230567193799
 20
476.43488163427003
 30
0.0
 11
200.9230567193799
 21
748.13266332339049
 31
0.0
  0
SOLID
  5
BC49
  8
OUTLINE
 62
    52
 10
195.9230567193799
 20
1100.5447307267971
 30
0.0
 11
205.9230567193799
 21
1100.5447307267971
 31
0.0
 12
200.9230567193799
 22
1130.5447307267971
 32
0.0
 13
200.9230567193799
 23
1130.5447307267971
 33
0.0
  0
SOLID
  5
BC4A
  8
OUTLINE
 62
    52
 10
195.9230567193799
 20
506.43488163426991
 30
0.0
 11
205.9230567193799
 21
506.43488163426991
 31
0.0
 12
200.9230567193799
 22
476.43488163427003
 32
0.0
 13
200.9230567193799
 23
476.43488163427003
 33
0.0
  0
INSERT
  5
BC4B
  8
TEXT
  6
CONTINUOUS
  2
*U39
 10
0.0
 20
0.0
 30
0.0
  0
LINE
  5
BC53
  8
OUTLINE
 62
    52
 10
2237.8098656695679
 20
1130.5447307267971
 30
0.0
 11
2315.2579745239359
 21
1130.5447307267971
 31
0.0
  0
LINE
  5
BC54
  8
OUTLINE
 62
    52
 10
2212.9778630591481
 20
497.41860867668191
 30
0.0
 11
2315.2579745239359
 21
497.41860867668191
 31
0.0
  0
LINE
  5
BC55
  8
OUTLINE
 62
    52
 10
2295.2579745239359
 20
1100.5447307267971
 30
0.0
 11
2295.2579745239359
 21
874.33881255888241
 31
0.0
  0
LINE
  5
BC56
  8
OUTLINE
 62
    52
 10
2295.2579745239359
 20
497.41860867668191
 30
0.0
 11
2295.2579745239359
 21
758.6245268445964
 31
0.0
  0
SOLID
  5
BC57
  8
OUTLINE
 62
    52
 10
2290.257974523935
 20
1100.5447307267971
 30
0.0
 11
2300.257974523935
 21
1100.5447307267971
 31
0.0
 12
2295.2579745239359
 22
1130.5447307267971
 32
0.0
 13
2295.2579745239359
 23
1130.5447307267971
 33
0.0
  0
SOLID
  5
BC58
  8
OUTLINE
 62
    52
 10
2290.257974523935
 20
527.4186086766822
 30
0.0
 11
2300.257974523935
 21
527.4186086766822
 31
0.0
 12
2295.2579745239359
 22
497.41860867668191
 32
0.0
 13
2295.2579745239359
 23
497.41860867668191
 33
0.0
  0
INSERT
  5
BC59
  8
TEXT
  6
CONTINUOUS
  2
*U40
 10
0.0
 20
0.0
 30
0.0
  0
LINE
  5
BC5A
  8
OUTLINE
  6
CONTINUOUS
 10
314.49479745723318
 20
477.44598912419917
 30
0.0
 11
291.20607762491181
 21
477.44598912419917
 31
0.0
  0
LINE
  5
BC5B
  8
OUTLINE
  6
CONTINUOUS
 10
314.4873848517318
 20
506.0459891241992
 30
0.0
 11
291.20607762491181
 21
506.0459891241992
 31
0.0
  0
LINE
  5
BC5C
  8
OUTLINE
  6
CONTINUOUS
 10
291.20607762491181
 20
516.54473072679775
 30
0.0
 11
291.20607762491181
 21
477.44598912419917
 31
0.0
  0
LINE
  5
BC5D
  8
OUTLINE
 62
    52
 10
313.60986566956677
 20
1477.768012712379
 30
0.0
 11
313.60986566956677
 21
1321.3193597332429
 31
0.0
  0
LINE
  5
BC5E
  8
OUTLINE
 62
    52
 10
435.41389141294508
 20
1394.4820454864939
 30
0.0
 11
435.41389141294508
 21
1321.3193597332429
 31
0.0
  0
LINE
  5
BC5F
  8
OUTLINE
 62
    52
 10
283.60986566956677
 20
1341.3193597332429
 30
0.0
 11
253.60986566956669
 21
1341.3193597332429
 31
0.0
  0
LINE
  5
BC60
  8
OUTLINE
 62
    52
 10
465.4138914129453
 20
1341.3193597332429
 30
0.0
 11
496.7038914129451
 21
1341.3193597332429
 31
0.0
  0
SOLID
  5
BC61
  8
OUTLINE
 62
    52
 10
283.60986566956677
 20
1346.3193597332429
 30
0.0
 11
283.60986566956677
 21
1336.3193597332429
 31
0.0
 12
313.60986566956677
 22
1341.3193597332429
 32
0.0
 13
313.60986566956677
 23
1341.3193597332429
 33
0.0
  0
SOLID
  5
BC62
  8
OUTLINE
 62
    52
 10
465.4138914129453
 20
1346.3193597332429
 30
0.0
 11
465.4138914129453
 21
1336.3193597332429
 31
0.0
 12
435.41389141294508
 22
1341.3193597332429
 32
0.0
 13
435.41389141294508
 23
1341.3193597332429
 33
0.0
  0
INSERT
  5
BC63
  8
TEXT
  6
CONTINUOUS
  2
*U41
 10
0.0
 20
0.0
 30
0.0
  0
LINE
  5
BC69
  8
OUTLINE
 62
    52
 10
386.06974964623168
 20
314.01038132948008
 30
0.0
 11
386.06974964623168
 21
1010.947290082502
 31
0.0
  0
LINE
  5
BC6B
  8
OUTLINE
 62
    52
 10
416.06974964623168
 20
348.22740227972088
 30
0.0
 11
846.39695051502974
 21
348.22740227972088
 31
0.0
  0
LINE
  5
BC6C
  8
OUTLINE
 62
    52
 10
1761.0098656695441
 20
348.22740227972088
 30
0.0
 11
1330.682664800745
 21
348.22740227972088
 31
0.0
  0
SOLID
  5
BC6D
  8
OUTLINE
 62
    52
 10
416.06974964623168
 20
353.22740227972099
 30
0.0
 11
416.06974964623168
 21
343.22740227972088
 31
0.0
 12
386.06974964623168
 22
348.22740227972088
 32
0.0
 13
386.06974964623168
 23
348.22740227972088
 33
0.0
  0
SOLID
  5
BC6E
  8
OUTLINE
 62
    52
 10
1761.0098656695441
 20
353.22740227972099
 30
0.0
 11
1761.0098656695441
 21
343.22740227972088
 31
0.0
 12
1791.0098656695429
 22
348.22740227972088
 32
0.0
 13
1791.0098656695429
 23
348.22740227972088
 33
0.0
  0
INSERT
  5
BC6F
  8
TEXT
  6
CONTINUOUS
  2
*U42
 10
0.0
 20
0.0
 30
0.0
  0
LINE
  5
BC70
  8
OUTLINE
 62
    52
 10
2147.8098656695452
 20
314.01038132948008
 30
0.0
 11
2147.8098656695452
 21
1010.947290082502
 31
0.0
  0
LINE
  5
BC72
  8
OUTLINE
 62
    52
 10
2117.8098656695452
 20
348.22740227972088
 30
0.0
 11
1821.0098656695429
 21
348.22740227972088
 31
0.0
  0
INSERT
  5
BC73
  8
TEXT
  6
CONTINUOUS
  2
*U43
 10
0.0
 20
0.0
 30
0.0
  0
SOLID
  5
BC74
  8
OUTLINE
 62
    52
 10
2117.8098656695452
 20
353.22740227972099
 30
0.0
 11
2117.8098656695452
 21
343.22740227972088
 31
0.0
 12
2147.8098656695452
 22
348.22740227972088
 32
0.0
 13
2147.8098656695452
 23
348.22740227972088
 33
0.0
  0
SOLID
  5
BC75
  8
OUTLINE
 62
    52
 10
1821.0098656695429
 20
353.22740227972099
 30
0.0
 11
1821.0098656695429
 21
343.22740227972088
 31
0.0
 12
1791.0098656695429
 22
348.22740227972088
 32
0.0
 13
1791.0098656695429
 23
348.22740227972088
 33
0.0
  0
LINE
  5
BC77
  8
OUTLINE
  6
CONTINUOUS
 10
1852.8753962687681
 20
2167.7680127123781
 30
0.0
 11
1852.8753962687681
 21
2207.7680127123799
 31
0.0
  0
LINE
  5
BC78
  8
OUTLINE
  6
CONTINUOUS
 10
1804.8753962687681
 20
2167.768012712379
 30
0.0
 11
1804.8753962687681
 21
2207.7680127123808
 31
0.0
  0
LINE
  5
BC79
  8
OUTLINE
  6
CONTINUOUS
 10
1852.8753962687681
 20
2207.7680127123799
 30
0.0
 11
1804.8753962687681
 21
2207.7680127123808
 31
0.0
  0
CIRCLE
  5
BC7A
  8
OUTLINE
  6
CONTINUOUS
 10
1828.8753962687681
 20
2187.7680127123799
 30
0.0
 40
9.5
  0
LINE
  5
BC7B
  8
OUTLINE
 62
    52
 10
345.87443613262769
 20
2227.7680127123799
 30
0.0
 11
345.87443613262769
 21
2460.841911095159
 31
0.0
  0
LINE
  5
BC7C
  8
OUTLINE
 62
    52
 10
1828.8753962687681
 20
2227.7680127123799
 30
0.0
 11
1828.8753962687681
 21
2460.841911095159
 31
0.0
  0
LINE
  5
BC7D
  8
OUTLINE
 62
    52
 10
378.44443613262769
 20
2440.8419110951581
 30
0.0
 11
846.51705905784092
 21
2440.8419110951581
 31
0.0
  0
LINE
  5
BC7E
  8
OUTLINE
 62
    52
 10
1798.875396268767
 20
2440.8419110951581
 30
0.0
 11
1330.8027733435549
 21
2440.8419110951581
 31
0.0
  0
SOLID
  5
BC7F
  8
OUTLINE
 62
    52
 10
375.87443613262769
 20
2445.8419110951581
 30
0.0
 11
375.87443613262769
 21
2435.8419110951581
 31
0.0
 12
345.87443613262769
 22
2440.8419110951581
 32
0.0
 13
345.87443613262769
 23
2440.8419110951581
 33
0.0
  0
SOLID
  5
BC80
  8
OUTLINE
 62
    52
 10
1798.875396268767
 20
2445.8419110951581
 30
0.0
 11
1798.875396268767
 21
2435.8419110951581
 31
0.0
 12
1828.8753962687681
 22
2440.8419110951581
 32
0.0
 13
1828.8753962687681
 23
2440.8419110951581
 33
0.0
  0
INSERT
  5
BC81
  8
TEXT
  6
CONTINUOUS
  2
*U44
 10
0.0
 20
0.0
 30
0.0
  0
LINE
  5
BC82
  8
OUTLINE
 62
    52
 10
1828.8753962687681
 20
2227.7680127123799
 30
0.0
 11
1828.8753962687681
 21
2460.841911095159
 31
0.0
  0
LINE
  5
BC83
  8
OUTLINE
 62
    52
 10
2147.8098656695452
 20
2227.7680127123808
 30
0.0
 11
2147.8098656695452
 21
2460.841911095159
 31
0.0
  0
LINE
  5
BC84
  8
OUTLINE
 62
    52
 10
1858.8753962687681
 20
2440.8419110951581
 30
0.0
 11
2117.8098656695452
 21
2440.8419110951581
 31
0.0
  0
SOLID
  5
BC85
  8
OUTLINE
 62
    52
 10
1858.8753962687681
 20
2445.8419110951581
 30
0.0
 11
1858.8753962687681
 21
2435.8419110951581
 31
0.0
 12
1828.8753962687681
 22
2440.8419110951581
 32
0.0
 13
1828.8753962687681
 23
2440.8419110951581
 33
0.0
  0
SOLID
  5
BC86
  8
OUTLINE
 62
    52
 10
2117.8098656695452
 20
2445.8419110951581
 30
0.0
 11
2117.8098656695452
 21
2435.8419110951581
 31
0.0
 12
2147.8098656695452
 22
2440.8419110951581
 32
0.0
 13
2147.8098656695452
 23
2440.8419110951581
 33
0.0
  0
INSERT
  5
BC87
  8
TEXT
  6
CONTINUOUS
  2
*U45
 10
0.0
 20
0.0
 30
0.0
  0
LINE
  5
BCD4
  8
OUTLINE
  6
CONTINUOUS
 10
3385.924063515411
 20
1042.3447307267979
 30
0.0
 11
3422.9240635154119
 21
1042.3447307267979
 31
0.0
  0
LINE
  5
BCD7
  8
OUTLINE
  6
CONTINUOUS
 10
3447.2240635154099
 20
1021.147870044842
 30
0.0
 11
3447.2240635154099
 21
553.5478700448424
 31
0.0
  0
LINE
  5
BCD8
  8
OUTLINE
  6
CONTINUOUS
 10
3462.2240635154112
 20
1021.147870044842
 30
0.0
 11
3462.2240635154112
 21
553.5478700448424
 31
0.0
  0
LINE
  5
BCD9
  8
OUTLINE
  6
CONTINUOUS
 10
3356.6240635154109
 20
1021.147870044842
 30
0.0
 11
3501.424063515411
 21
1021.147870044842
 31
0.0
  0
LINE
  5
BCDF
  8
OUTLINE
  6
CONTINUOUS
 10
3356.6240635154122
 20
553.5478700448424
 30
0.0
 11
3501.424063515411
 21
553.5478700448424
 31
0.0
  0
LINE
  5
BCE6
  8
OUTLINE
  6
CONTINUOUS
 10
3501.424063515411
 20
1037.347870044842
 30
0.0
 11
3501.424063515411
 21
537.34787004484235
 31
0.0
  0
LINE
  5
BD00
  8
OUTLINE
 62
    52
 10
3029.8240635154111
 20
995.54473072679582
 30
0.0
 11
2962.3320740280051
 21
995.54473072679582
 31
0.0
  0
LINE
  5
BD01
  8
OUTLINE
 62
    52
 10
3029.8240635154111
 20
1085.5447307267959
 30
0.0
 11
2962.3320740280051
 21
1085.5447307267959
 31
0.0
  0
LINE
  5
BD02
  8
OUTLINE
 62
    52
 10
2982.332074028006
 20
965.54473072679548
 30
0.0
 11
2982.332074028006
 21
935.54473072679559
 31
0.0
  0
LINE
  5
BD03
  8
OUTLINE
 62
    52
 10
2982.332074028006
 20
1120.5447307267971
 30
0.0
 11
2982.332074028006
 21
1150.5447307267959
 31
0.0
  0
INSERT
  5
BD04
  8
TEXT
  6
CONTINUOUS
  2
*U46
 10
0.0
 20
0.0
 30
0.0
  0
SOLID
  5
BD05
  8
OUTLINE
 62
    52
 10
2977.3320740280051
 20
965.54473072679548
 30
0.0
 11
2987.3320740280051
 21
965.54473072679548
 31
0.0
 12
2982.332074028006
 22
995.54473072679582
 32
0.0
 13
2982.332074028006
 23
995.54473072679582
 33
0.0
  0
SOLID
  5
BD06
  8
OUTLINE
 62
    52
 10
2977.3320740280051
 20
1115.5447307267959
 30
0.0
 11
2987.3320740280051
 21
1115.5447307267959
 31
0.0
 12
2982.332074028006
 22
1085.5447307267959
 32
0.0
 13
2982.332074028006
 23
1085.5447307267959
 33
0.0
  0
LINE
  5
BD07
  8
OUTLINE
 62
    52
 10
3069.8240635154111
 20
1085.5447307267959
 30
0.0
 11
3123.9651810405762
 21
1085.5447307267959
 31
0.0
  0
LINE
  5
BD09
  8
OUTLINE
 62
    52
 10
3103.9651810405762
 20
1055.5447307267959
 30
0.0
 11
3103.9651810405762
 21
1025.5447307267959
 31
0.0
  0
LINE
  5
BD0A
  8
OUTLINE
 62
    52
 10
3103.9651810405762
 20
1160.5447307267959
 30
0.0
 11
3103.9651810405762
 21
1190.5447307267959
 31
0.0
  0
INSERT
  5
BD0B
  8
TEXT
  6
CONTINUOUS
  2
*U47
 10
0.0
 20
0.0
 30
0.0
  0
SOLID
  5
BD0C
  8
OUTLINE
 62
    52
 10
3098.9651810405762
 20
1055.5447307267959
 30
0.0
 11
3108.9651810405762
 21
1055.5447307267959
 31
0.0
 12
3103.9651810405762
 22
1085.5447307267959
 32
0.0
 13
3103.9651810405762
 23
1085.5447307267959
 33
0.0
  0
SOLID
  5
BD0D
  8
OUTLINE
 62
    52
 10
3098.9651810405762
 20
1160.5447307267959
 30
0.0
 11
3108.9651810405762
 21
1160.5447307267959
 31
0.0
 12
3103.9651810405762
 22
1130.5447307267959
 32
0.0
 13
3103.9651810405762
 23
1130.5447307267959
 33
0.0
  0
LINE
  5
BD0E
  8
OUTLINE
 62
    52
 10
2613.9553176899049
 20
1004.144730726775
 30
0.0
 11
2505.3952125744768
 21
1004.1447307267759
 31
0.0
  0
LINE
  5
BD10
  8
OUTLINE
 62
    52
 10
2525.3952125744781
 20
974.14473072677583
 30
0.0
 11
2525.3952125744781
 21
944.14473072677583
 31
0.0
  0
LINE
  5
BD11
  8
OUTLINE
 62
    52
 10
2525.3952125744781
 20
1160.5447307267971
 30
0.0
 11
2525.3952125744781
 21
1190.5447307267971
 31
0.0
  0
SOLID
  5
BD12
  8
OUTLINE
 62
    52
 10
2520.3952125744781
 20
974.14473072677583
 30
0.0
 11
2530.3952125744768
 21
974.14473072677583
 31
0.0
 12
2525.3952125744781
 22
1004.1447307267759
 32
0.0
 13
2525.3952125744781
 23
1004.1447307267759
 33
0.0
  0
SOLID
  5
BD13
  8
OUTLINE
 62
    52
 10
2520.3952125744781
 20
1160.5447307267971
 30
0.0
 11
2530.3952125744768
 21
1160.5447307267971
 31
0.0
 12
2525.3952125744781
 22
1130.5447307267971
 32
0.0
 13
2525.3952125744781
 23
1130.5447307267971
 33
0.0
  0
INSERT
  5
BD14
  8
TEXT
  6
CONTINUOUS
  2
*U48
 10
0.0
 20
0.0
 30
0.0
  0
LINE
  5
BD1E
  8
OUTLINE
  6
CONTINUOUS
 10
2625.6240635154099
 20
704.14473072677674
 30
0.0
 11
2651.2240635154121
 21
704.14473072677674
 31
0.0
  0
LINE
  5
BD1F
  8
OUTLINE
 62
    52
 10
3404.2240635154089
 20
1129.3447307267959
 30
0.0
 11
3614.7954821861508
 21
1129.3447307267959
 31
0.0
  0
LINE
  5
BD20
  8
OUTLINE
 62
    52
 10
3520.2240635154099
 20
1038.047870044843
 30
0.0
 11
3614.7954821861508
 21
1038.047870044843
 31
0.0
  0
LINE
  5
BD21
  8
OUTLINE
 62
    52
 10
3594.7954821861522
 20
1159.3447307267959
 30
0.0
 11
3594.7954821861522
 21
1189.3447307267959
 31
0.0
  0
LINE
  5
BD22
  8
OUTLINE
 62
    52
 10
3594.7954821861522
 20
1008.047870044843
 30
0.0
 11
3594.7954821861522
 21
978.04787004484331
 31
0.0
  0
SOLID
  5
BD23
  8
OUTLINE
 62
    52
 10
3589.7954821861508
 20
1159.3447307267959
 30
0.0
 11
3599.7954821861508
 21
1159.3447307267959
 31
0.0
 12
3594.7954821861522
 22
1129.3447307267959
 32
0.0
 13
3594.7954821861522
 23
1129.3447307267959
 33
0.0
  0
SOLID
  5
BD24
  8
OUTLINE
 62
    52
 10
3589.7954821861508
 20
1008.047870044843
 30
0.0
 11
3599.7954821861508
 21
1008.047870044843
 31
0.0
 12
3594.7954821861522
 22
1038.047870044843
 32
0.0
 13
3594.7954821861522
 23
1038.047870044843
 33
0.0
  0
INSERT
  5
BD25
  8
TEXT
  6
CONTINUOUS
  2
*U49
 10
0.0
 20
0.0
 30
0.0
  0
LINE
  5
BD26
  8
OUTLINE
 62
    52
 10
3520.2240635154099
 20
538.04787004484217
 30
0.0
 11
3614.7954821861508
 21
538.04787004484217
 31
0.0
  0
LINE
  5
BD27
  8
OUTLINE
 62
    52
 10
3520.2240635154099
 20
1038.047870044843
 30
0.0
 11
3614.7954821861508
 21
1038.047870044843
 31
0.0
  0
LINE
  5
BD28
  8
OUTLINE
 62
    52
 10
3594.7954821861522
 20
568.0478700448424
 30
0.0
 11
3594.7954821861522
 21
730.77644147341425
 31
0.0
  0
LINE
  5
BD29
  8
OUTLINE
 62
    52
 10
3594.7954821861522
 20
1008.047870044843
 30
0.0
 11
3594.7954821861522
 21
847.91929861627125
 31
0.0
  0
SOLID
  5
BD2A
  8
OUTLINE
 62
    52
 10
3589.7954821861508
 20
568.0478700448424
 30
0.0
 11
3599.7954821861508
 21
568.0478700448424
 31
0.0
 12
3594.7954821861522
 22
538.04787004484217
 32
0.0
 13
3594.7954821861522
 23
538.04787004484217
 33
0.0
  0
SOLID
  5
BD2B
  8
OUTLINE
 62
    52
 10
3589.7954821861508
 20
1008.047870044843
 30
0.0
 11
3599.7954821861508
 21
1008.047870044843
 31
0.0
 12
3594.7954821861522
 22
1038.047870044843
 32
0.0
 13
3594.7954821861522
 23
1038.047870044843
 33
0.0
  0
INSERT
  5
BD2C
  8
TEXT
  6
CONTINUOUS
  2
*U50
 10
0.0
 20
0.0
 30
0.0
  0
LINE
  5
BD2D
  8
OUTLINE
  6
CONTINUOUS
 10
369.77986566956679
 20
2285.1680127123809
 30
0.0
 11
1801.379865669566
 21
2285.1680127123809
 31
0.0
  0
LINE
  5
BD31
  8
OUTLINE
 10
384.77986566956679
 20
2285.1680127123809
 30
0.0
 11
384.77986566956679
 21
2167.7680127123799
 31
0.0
  0
LINE
  5
BD33
  8
OUTLINE
 10
1786.3798656695669
 20
2285.1680127123809
 30
0.0
 11
1786.3798656695669
 21
2167.768012712379
 31
0.0
  0
LINE
  5
BD37
  8
OUTLINE
 62
    52
 10
369.77986566956679
 20
2305.1680127123809
 30
0.0
 11
369.77986566956679
 21
2371.4960494908069
 31
0.0
  0
LINE
  5
BD38
  8
OUTLINE
 62
    52
 10
285.20986566956429
 20
2156.5324704684199
 30
0.0
 11
285.20986566956429
 21
2371.4960494908069
 31
0.0
  0
LINE
  5
BD39
  8
OUTLINE
 62
    52
 10
399.77986566956679
 20
2351.4960494908069
 30
0.0
 11
429.77986566956662
 21
2351.4960494908069
 31
0.0
  0
LINE
  5
BD3A
  8
OUTLINE
 62
    52
 10
255.20986566956441
 20
2351.4960494908069
 30
0.0
 11
225.20986566956429
 21
2351.4960494908069
 31
0.0
  0
INSERT
  5
BD3B
  8
TEXT
  6
CONTINUOUS
  2
*U51
 10
0.0
 20
0.0
 30
0.0
  0
SOLID
  5
BD3C
  8
OUTLINE
 62
    52
 10
399.77986566956679
 20
2356.4960494908069
 30
0.0
 11
399.77986566956679
 21
2346.4960494908082
 31
0.0
 12
369.77986566956679
 22
2351.4960494908069
 32
0.0
 13
369.77986566956679
 23
2351.4960494908069
 33
0.0
  0
SOLID
  5
BD3D
  8
OUTLINE
 62
    52
 10
255.20986566956441
 20
2356.4960494908069
 30
0.0
 11
255.20986566956441
 21
2346.4960494908082
 31
0.0
 12
285.20986566956429
 22
2351.4960494908069
 32
0.0
 13
285.20986566956429
 23
2351.4960494908069
 33
0.0
  0
LINE
  5
BD3E
  8
OUTLINE
 62
    52
 10
369.77986566956679
 20
2305.1680127123809
 30
0.0
 11
369.77986566956679
 21
2371.4960494908069
 31
0.0
  0
LINE
  5
BD3F
  8
OUTLINE
 62
    52
 10
1801.379865669566
 20
2305.1680127123809
 30
0.0
 11
1801.379865669566
 21
2371.4960494908069
 31
0.0
  0
LINE
  5
BD40
  8
OUTLINE
 62
    52
 10
399.77986566956679
 20
2351.4960494908069
 30
0.0
 11
1015.579865669567
 21
2351.4960494908069
 31
0.0
  0
LINE
  5
BD41
  8
OUTLINE
 62
    52
 10
1771.3798656695669
 20
2351.4960494908069
 30
0.0
 11
1155.579865669567
 21
2351.4960494908069
 31
0.0
  0
SOLID
  5
BD42
  8
OUTLINE
 62
    52
 10
399.77986566956679
 20
2356.4960494908069
 30
0.0
 11
399.77986566956679
 21
2346.4960494908082
 31
0.0
 12
369.77986566956679
 22
2351.4960494908069
 32
0.0
 13
369.77986566956679
 23
2351.4960494908069
 33
0.0
  0
SOLID
  5
BD43
  8
OUTLINE
 62
    52
 10
1771.3798656695669
 20
2356.4960494908069
 30
0.0
 11
1771.3798656695669
 21
2346.4960494908082
 31
0.0
 12
1801.379865669566
 22
2351.4960494908069
 32
0.0
 13
1801.379865669566
 23
2351.4960494908069
 33
0.0
  0
INSERT
  5
BD44
  8
TEXT
  6
CONTINUOUS
  2
*U52
 10
0.0
 20
0.0
 30
0.0
  0
LINE
  5
BD47
  8
OUTLINE
 62
    52
 10
2714.8240635154111
 20
1150.5447307267971
 30
0.0
 11
2714.8240635154111
 21
1244.626840938711
 31
0.0
  0
LINE
  5
BD48
  8
OUTLINE
 62
    52
 10
3049.8240635154111
 20
1105.5447307267959
 30
0.0
 11
3049.8240635154111
 21
1244.626840938711
 31
0.0
  0
LINE
  5
BD49
  8
OUTLINE
 62
    52
 10
2744.8240635154111
 20
1224.626840938711
 30
0.0
 11
2823.7526349439818
 21
1224.626840938711
 31
0.0
  0
LINE
  5
BD4A
  8
OUTLINE
 62
    52
 10
3019.8240635154111
 20
1224.626840938711
 30
0.0
 11
2940.89549208684
 21
1224.626840938711
 31
0.0
  0
SOLID
  5
BD4B
  8
OUTLINE
 62
    52
 10
2744.8240635154111
 20
1229.626840938711
 30
0.0
 11
2744.8240635154111
 21
1219.626840938711
 31
0.0
 12
2714.8240635154111
 22
1224.626840938711
 32
0.0
 13
2714.8240635154111
 23
1224.626840938711
 33
0.0
  0
SOLID
  5
BD4C
  8
OUTLINE
 62
    52
 10
3019.8240635154111
 20
1229.626840938711
 30
0.0
 11
3019.8240635154111
 21
1219.626840938711
 31
0.0
 12
3049.8240635154111
 22
1224.626840938711
 32
0.0
 13
3049.8240635154111
 23
1224.626840938711
 33
0.0
  0
INSERT
  5
BD4D
  8
TEXT
  6
CONTINUOUS
  2
*U53
 10
0.0
 20
0.0
 30
0.0
  0
LINE
  5
BD50
  8
DIM
 10
3412.7059534435721
 20
786.90062455504869
 30
0.0
 11
3432.550132236378
 21
786.90062455504869
 31
0.0
  0
LINE
  5
BD51
  8
DIM
 10
3412.7059534435721
 20
770.56407337186647
 30
0.0
 11
3412.7059534435721
 21
786.90062455504869
 31
0.0
  0
LINE
  5
BD52
  8
DIM
 10
3375.8491617181471
 20
794.49902045420151
 30
0.0
 11
3412.7059534435721
 21
770.56407337186647
 31
0.0
  0
LINE
  5
BD53
  8
DIM
 10
3432.550132236378
 20
802.09741635335615
 30
0.0
 11
3432.550132236378
 21
786.90062455504869
 31
0.0
  0
LINE
  5
BD54
  8
DIM
 10
3412.7059534435721
 20
802.09741635335615
 30
0.0
 11
3432.550132236378
 21
802.09741635335615
 31
0.0
  0
LINE
  5
BD55
  8
DIM
 10
3412.7059534435721
 20
818.43396753653565
 30
0.0
 11
3412.7059534435721
 21
802.09741635335615
 31
0.0
  0
LINE
  5
BD56
  8
DIM
 10
3375.8491617181471
 20
794.49902045420151
 30
0.0
 11
3412.7059534435721
 21
818.43396753653565
 31
0.0
  0
LINE
  5
BD57
  8
DIM
 10
2699.5469616544019
 20
841.80982356941149
 30
0.0
 11
2719.3911404472069
 21
841.80982356941149
 31
0.0
  0
LINE
  5
BD58
  8
DIM
 10
2699.5469616544019
 20
825.47327238623052
 30
0.0
 11
2699.5469616544019
 21
841.80982356941149
 31
0.0
  0
LINE
  5
BD59
  8
DIM
 10
2662.6901699289788
 20
849.40821946856443
 30
0.0
 11
2699.5469616544019
 21
825.47327238623052
 31
0.0
  0
LINE
  5
BD5A
  8
DIM
 10
2719.3911404472069
 20
857.00661536771884
 30
0.0
 11
2719.3911404472069
 21
841.80982356941149
 31
0.0
  0
LINE
  5
BD5B
  8
DIM
 10
2699.5469616544019
 20
857.00661536771884
 30
0.0
 11
2719.3911404472069
 21
857.00661536771884
 31
0.0
  0
LINE
  5
BD5C
  8
DIM
 10
2699.5469616544019
 20
873.3431665508989
 30
0.0
 11
2699.5469616544019
 21
857.00661536771884
 31
0.0
  0
LINE
  5
BD5D
  8
DIM
 10
2662.6901699289788
 20
849.40821946856443
 30
0.0
 11
2699.5469616544019
 21
873.3431665508989
 31
0.0
  0
LINE
  5
BD60
  8
OUTLINE
  6
CONTINUOUS
 10
2732.02406351541
 20
1038.339812108796
 30
0.0
 11
2677.02406351541
 21
1038.339812108796
 31
0.0
  0
LINE
  5
BD61
  8
OUTLINE
  6
CONTINUOUS
 10
2732.02406351541
 20
1030.339812108796
 30
0.0
 11
2677.02406351541
 21
1030.339812108796
 31
0.0
  0
ARC
  5
BD62
  8
OUTLINE
  6
CONTINUOUS
 10
2712.52406351541
 20
1027.339812108796
 30
0.0
 40
3.0
 50
0.0
 51
90.0
  0
LINE
  5
BD63
  8
OUTLINE
  6
CONTINUOUS
 10
2697.0240635154109
 20
1030.339812108796
 30
0.0
 11
2697.0240635154109
 21
1023.339812108796
 31
0.0
  0
ARC
  5
BD64
  8
OUTLINE
  6
CONTINUOUS
 10
2681.52406351541
 20
1027.339812108796
 30
0.0
 40
3.0
 50
90.0
 51
180.0
  0
LINE
  5
BD65
  8
OUTLINE
  6
CONTINUOUS
 10
2677.02406351541
 20
1038.339812108796
 30
0.0
 11
2677.02406351541
 21
1030.339812108796
 31
0.0
  0
LINE
  5
BD66
  8
OUTLINE
  6
CONTINUOUS
 10
2681.52406351541
 20
1030.339812108796
 30
0.0
 11
2712.52406351541
 21
1030.339812108796
 31
0.0
  0
LINE
  5
BD67
  8
OUTLINE
  6
CONTINUOUS
 10
2715.52406351541
 20
1027.339812108796
 30
0.0
 11
2715.52406351541
 21
1023.339812108796
 31
0.0
  0
LINE
  5
BD68
  8
OUTLINE
  6
CONTINUOUS
 10
2678.52406351541
 20
1027.339812108796
 30
0.0
 11
2678.52406351541
 21
1023.339812108796
 31
0.0
  0
LINE
  5
BD69
  8
OUTLINE
  6
CONTINUOUS
 10
2715.52406351541
 20
1023.339812108796
 30
0.0
 11
2678.52406351541
 21
1023.339812108796
 31
0.0
  0
LINE
  5
BD6A
  8
OUTLINE
  6
CONTINUOUS
 10
2734.02406351541
 20
1100.339812108796
 30
0.0
 11
2734.02406351541
 21
1040.339812108796
 31
0.0
  0
LINE
  5
BD6B
  8
OUTLINE
  6
CONTINUOUS
 10
2742.02406351541
 20
1100.339812108796
 30
0.0
 11
2742.02406351541
 21
1040.339812108796
 31
0.0
  0
ARC
  5
BD6D
  8
OUTLINE
  6
CONTINUOUS
 10
2732.02406351541
 20
1040.339812108796
 30
0.0
 40
10.0
 50
270.0
 51
0.0
  0
ARC
  5
BD6E
  8
OUTLINE
  6
CONTINUOUS
 10
2732.02406351541
 20
1040.339812108796
 30
0.0
 40
2.0
 50
270.0
 51
0.0
  0
LINE
  5
BD6F
  8
OUTLINE
  6
CONTINUOUS
 10
3369.4240635154119
 20
1057.3447307267979
 30
0.0
 11
3424.4240635154119
 21
1057.3447307267979
 31
0.0
  0
LINE
  5
BD70
  8
OUTLINE
  6
CONTINUOUS
 10
3369.4240635154119
 20
1049.3447307267979
 30
0.0
 11
3424.4240635154119
 21
1049.3447307267979
 31
0.0
  0
ARC
  5
BD71
  8
OUTLINE
  6
CONTINUOUS
 10
3388.9240635154119
 20
1046.3447307267979
 30
0.0
 40
3.0
 50
90.0
 51
180.0
  0
LINE
  5
BD72
  8
OUTLINE
  6
CONTINUOUS
 10
3404.4240635154119
 20
1049.3447307267979
 30
0.0
 11
3404.4240635154119
 21
1042.3447307267979
 31
0.0
  0
ARC
  5
BD73
  8
OUTLINE
  6
CONTINUOUS
 10
3419.9240635154119
 20
1046.3447307267979
 30
0.0
 40
3.0
 50
0.0
 51
90.0
  0
LINE
  5
BD74
  8
OUTLINE
  6
CONTINUOUS
 10
3424.4240635154119
 20
1057.3447307267979
 30
0.0
 11
3424.4240635154119
 21
1049.3447307267979
 31
0.0
  0
LINE
  5
BD75
  8
OUTLINE
  6
CONTINUOUS
 10
3419.9240635154119
 20
1049.3447307267979
 30
0.0
 11
3388.9240635154119
 21
1049.3447307267979
 31
0.0
  0
LINE
  5
BD76
  8
OUTLINE
  6
CONTINUOUS
 10
3385.9240635154142
 20
1046.3447307267979
 30
0.0
 11
3385.9240635154142
 21
1042.3447307267979
 31
0.0
  0
LINE
  5
BD77
  8
OUTLINE
  6
CONTINUOUS
 10
3422.9240635154119
 20
1046.3447307267979
 30
0.0
 11
3422.9240635154119
 21
1042.3447307267979
 31
0.0
  0
LINE
  5
BD78
  8
OUTLINE
  6
CONTINUOUS
 10
3385.9240635154142
 20
1042.3447307267979
 30
0.0
 11
3422.9240635154119
 21
1042.3447307267979
 31
0.0
  0
LINE
  5
BD79
  8
OUTLINE
  6
CONTINUOUS
 10
3367.4240635154119
 20
1119.3447307267979
 30
0.0
 11
3367.4240635154119
 21
1059.3447307267979
 31
0.0
  0
LINE
  5
BD7A
  8
OUTLINE
  6
CONTINUOUS
 10
3359.4240635154119
 20
1119.3447307267979
 30
0.0
 11
3359.4240635154119
 21
1059.3447307267979
 31
0.0
  0
ARC
  5
BD7C
  8
OUTLINE
  6
CONTINUOUS
 10
3369.4240635154119
 20
1059.3447307267979
 30
0.0
 40
10.0
 50
180.0
 51
270.0
  0
ARC
  5
BD7D
  8
OUTLINE
  6
CONTINUOUS
 10
3369.4240635154119
 20
1059.3447307267979
 30
0.0
 40
2.0
 50
180.0
 51
270.0
  0
LINE
  5
BD7E
  8
OUTLINE
  6
CONTINUOUS
 10
2867.1240635154109
 20
955.14473072679675
 30
0.0
 11
3233.1240635154109
 21
955.14473072679675
 31
0.0
  0
LINE
  5
BD7F
  8
OUTLINE
  6
CONTINUOUS
 10
3233.1240635154109
 20
955.14473072679675
 30
0.0
 11
3233.1240635154109
 21
589.14473072679675
 31
0.0
  0
LINE
  5
BD80
  8
OUTLINE
  6
CONTINUOUS
 10
3233.1240635154109
 20
589.14473072679675
 30
0.0
 11
2867.1240635154109
 21
589.14473072679675
 31
0.0
  0
LINE
  5
BD81
  8
OUTLINE
  6
CONTINUOUS
 10
2867.1240635154109
 20
589.14473072679675
 30
0.0
 11
2867.1240635154109
 21
955.14473072679675
 31
0.0
  0
ARC
  5
BF0C
  8
OUTLINE
  6
CONTINUOUS
 10
1823.2753962687909
 20
2155.2680127124058
 30
0.0
 40
6.0
 50
90.0
 51
270.0
  0
ARC
  5
BF0D
  8
OUTLINE
  6
CONTINUOUS
 10
1831.2753962687909
 20
2155.2680127124058
 30
0.0
 40
6.0
 50
270.0
 51
90.0
  0
LINE
  5
BF0E
  8
OUTLINE
  6
CONTINUOUS
 10
1823.2753962687909
 20
2161.2680127124049
 30
0.0
 11
1831.2753962687909
 21
2161.2680127124049
 31
0.0
  0
LINE
  5
BF0F
  8
OUTLINE
  6
CONTINUOUS
 10
1831.2753962687909
 20
2149.2680127124049
 30
0.0
 11
1823.2753962687909
 21
2149.2680127124049
 31
0.0
  0
LINE
  5
BF10
  8
OUTLINE
  6
CONTINUOUS
 10
1793.409865669588
 20
1515.0680127123551
 30
0.0
 11
1785.409865669588
 21
1515.0680127123551
 31
0.0
  0
LINE
  5
BF11
  8
OUTLINE
  6
CONTINUOUS
 10
2150.2098656695889
 20
1515.0680127123551
 30
0.0
 11
2142.2098656695898
 21
1515.0680127123551
 31
0.0
  0
LINE
  5
BF12
  8
OUTLINE
  6
CONTINUOUS
 10
2173.816225089427
 20
1430.5680127123801
 30
0.0
 11
2173.816225089427
 21
1497.7680127123799
 31
0.0
  0
LINE
  5
BF13
  8
OUTLINE
  6
CONTINUOUS
 10
2218.6098656695658
 20
1522.7680127123799
 30
0.0
 11
288.60986566957041
 21
1522.7680127123781
 31
0.0
  0
LINE
  5
BF14
  8
DIM
 10
1269.268613068919
 20
2043.4395323464589
 30
0.0
 11
1269.268613068919
 21
2063.283711139261
 31
0.0
  0
LINE
  5
BF15
  8
DIM
 10
1285.6051642521011
 20
2043.4395323464589
 30
0.0
 11
1269.268613068919
 21
2043.4395323464589
 31
0.0
  0
LINE
  5
BF16
  8
DIM
 10
1261.670217169768
 20
2004.8827406210339
 30
0.0
 11
1285.6051642521011
 21
2043.4395323464589
 31
0.0
  0
LINE
  5
BF17
  8
DIM
 10
1254.0718212706131
 20
2063.283711139261
 30
0.0
 11
1269.268613068919
 21
2063.283711139261
 31
0.0
  0
LINE
  5
BF18
  8
DIM
 10
1254.0718212706131
 20
2043.4395323464589
 30
0.0
 11
1254.0718212706131
 21
2063.283711139261
 31
0.0
  0
LINE
  5
BF19
  8
DIM
 10
1237.7352700874319
 20
2043.4395323464589
 30
0.0
 11
1254.0718212706131
 21
2043.4395323464589
 31
0.0
  0
LINE
  5
BF1A
  8
DIM
 10
1261.670217169768
 20
2004.8827406210339
 30
0.0
 11
1237.7352700874319
 21
2043.4395323464589
 31
0.0
  0
LINE
  5
BF1B
  8
DIM
 10
703.69605547925119
 20
2043.4395323464589
 30
0.0
 11
703.69605547925119
 21
2063.283711139261
 31
0.0
  0
LINE
  5
BF1C
  8
DIM
 10
720.03260666243182
 20
2043.4395323464589
 30
0.0
 11
703.69605547925119
 21
2043.4395323464589
 31
0.0
  0
LINE
  5
BF1D
  8
DIM
 10
696.09765958009768
 20
2004.8827406210339
 30
0.0
 11
720.03260666243182
 21
2043.4395323464589
 31
0.0
  0
LINE
  5
BF1E
  8
DIM
 10
688.49926368094327
 20
2063.283711139261
 30
0.0
 11
703.69605547925119
 21
2063.283711139261
 31
0.0
  0
LINE
  5
BF1F
  8
DIM
 10
688.49926368094327
 20
2043.4395323464589
 30
0.0
 11
688.49926368094327
 21
2063.283711139261
 31
0.0
  0
LINE
  5
BF20
  8
DIM
 10
672.16271249776287
 20
2043.4395323464589
 30
0.0
 11
688.49926368094327
 21
2043.4395323464589
 31
0.0
  0
LINE
  5
BF21
  8
DIM
 10
696.09765958009768
 20
2004.8827406210339
 30
0.0
 11
672.16271249776287
 21
2043.4395323464589
 31
0.0
  0
LINE
  5
BF22
  8
DIM
 10
1269.268613068919
 20
1600.4032030727101
 30
0.0
 11
1269.268613068919
 21
1620.247381865513
 31
0.0
  0
LINE
  5
BF23
  8
DIM
 10
1285.6051642521011
 20
1600.4032030727101
 30
0.0
 11
1269.268613068919
 21
1600.4032030727101
 31
0.0
  0
LINE
  5
BF24
  8
DIM
 10
1261.670217169768
 20
1563.5464113472831
 30
0.0
 11
1285.6051642521011
 21
1600.4032030727101
 31
0.0
  0
LINE
  5
BF25
  8
DIM
 10
1254.0718212706131
 20
1620.247381865513
 30
0.0
 11
1269.268613068919
 21
1620.247381865513
 31
0.0
  0
LINE
  5
BF26
  8
DIM
 10
1254.0718212706131
 20
1600.4032030727101
 30
0.0
 11
1254.0718212706131
 21
1620.247381865513
 31
0.0
  0
LINE
  5
BF27
  8
DIM
 10
1237.7352700874319
 20
1600.4032030727101
 30
0.0
 11
1254.0718212706131
 21
1600.4032030727101
 31
0.0
  0
LINE
  5
BF28
  8
DIM
 10
1261.670217169768
 20
1563.5464113472831
 30
0.0
 11
1237.7352700874319
 21
1600.4032030727101
 31
0.0
  0
LINE
  5
BF29
  8
DIM
 10
703.69605547925119
 20
1600.4032030727101
 30
0.0
 11
703.69605547925119
 21
1620.247381865513
 31
0.0
  0
LINE
  5
BF2A
  8
DIM
 10
720.03260666243182
 20
1600.4032030727101
 30
0.0
 11
703.69605547925119
 21
1600.4032030727101
 31
0.0
  0
LINE
  5
BF2B
  8
DIM
 10
696.09765958009768
 20
1563.5464113472831
 30
0.0
 11
720.03260666243182
 21
1600.4032030727101
 31
0.0
  0
LINE
  5
BF2C
  8
DIM
 10
688.49926368094327
 20
1620.247381865513
 30
0.0
 11
703.69605547925119
 21
1620.247381865513
 31
0.0
  0
LINE
  5
BF2D
  8
DIM
 10
688.49926368094327
 20
1600.4032030727101
 30
0.0
 11
688.49926368094327
 21
1620.247381865513
 31
0.0
  0
LINE
  5
BF2E
  8
DIM
 10
672.16271249776287
 20
1600.4032030727101
 30
0.0
 11
688.49926368094327
 21
1600.4032030727101
 31
0.0
  0
LINE
  5
BF2F
  8
DIM
 10
696.09765958009768
 20
1563.5464113472831
 30
0.0
 11
672.16271249776287
 21
1600.4032030727101
 31
0.0
  0
LINE
  5
BF3A
  8
OUTLINE
 62
    52
 10
359.77986566956679
 20
2285.1680127123809
 30
0.0
 11
194.3011474852232
 21
2285.1680127123809
 31
0.0
  0
LINE
  5
BF3B
  8
OUTLINE
 62
    52
 10
425.41389141294519
 20
1409.168012712378
 30
0.0
 11
194.301147485223
 21
1409.168012712378
 31
0.0
  0
LINE
  5
BF3C
  8
OUTLINE
 62
    52
 10
212.66589126202251
 20
2255.1680127123809
 30
0.0
 11
212.6658912620224
 21
1950.468012712379
 31
0.0
  0
LINE
  5
BF3D
  8
OUTLINE
 62
    52
 10
212.66589126202231
 20
1439.168012712378
 30
0.0
 11
212.66589126202231
 21
1740.468012712379
 31
0.0
  0
SOLID
  5
BF3E
  8
OUTLINE
 62
    52
 10
207.6658912620224
 20
2255.1680127123809
 30
0.0
 11
217.6658912620224
 21
2255.1680127123809
 31
0.0
 12
212.66589126202251
 22
2285.1680127123809
 32
0.0
 13
212.66589126202251
 23
2285.1680127123809
 33
0.0
  0
SOLID
  5
BF3F
  8
OUTLINE
 62
    52
 10
207.66589126202231
 20
1439.168012712378
 30
0.0
 11
217.66589126202231
 21
1439.168012712378
 31
0.0
 12
212.66589126202231
 22
1409.168012712378
 32
0.0
 13
212.66589126202231
 23
1409.168012712378
 33
0.0
  0
INSERT
  5
BF40
  8
TEXT
  6
CONTINUOUS
  2
*U54
 10
0.0
 20
0.0
 30
0.0
  0
LINE
  5
BF41
  8
OUTLINE
 62
    52
 10
2204.6098656695672
 20
2167.768012712379
 30
0.0
 11
2318.1384229212158
 21
2167.768012712379
 31
0.0
  0
LINE
  5
BF42
  8
OUTLINE
 62
    52
 10
2204.6098656695672
 20
1497.7680127123799
 30
0.0
 11
2318.1384229212158
 21
1497.7680127123799
 31
0.0
  0
LINE
  5
BF43
  8
OUTLINE
 62
    52
 10
2301.6514460683852
 20
2137.768012712379
 30
0.0
 11
2301.6514460683852
 21
1875.268012712379
 31
0.0
  0
LINE
  5
BF44
  8
OUTLINE
 62
    52
 10
2301.6514460683852
 20
1527.7680127123799
 30
0.0
 11
2301.6514460683852
 21
1790.268012712379
 31
0.0
  0
SOLID
  5
BF45
  8
OUTLINE
 62
    52
 10
2296.6514460683861
 20
2137.768012712379
 30
0.0
 11
2306.6514460683852
 21
2137.768012712379
 31
0.0
 12
2301.6514460683852
 22
2167.768012712379
 32
0.0
 13
2301.6514460683852
 23
2167.768012712379
 33
0.0
  0
SOLID
  5
BF46
  8
OUTLINE
 62
    52
 10
2296.6514460683861
 20
1527.7680127123799
 30
0.0
 11
2306.6514460683852
 21
1527.7680127123799
 31
0.0
 12
2301.6514460683852
 22
1497.7680127123799
 32
0.0
 13
2301.6514460683852
 23
1497.7680127123799
 33
0.0
  0
INSERT
  5
BF47
  8
TEXT
  6
CONTINUOUS
  2
*U55
 10
0.0
 20
0.0
 30
0.0
  0
LINE
  5
BF48
  8
OUTLINE
 62
    52
 10
288.60986566956848
 20
1512.768012712379
 30
0.0
 11
288.60986566956848
 21
1257.022128507198
 31
0.0
  0
LINE
  5
BF49
  8
OUTLINE
 62
    52
 10
2218.6098656695658
 20
1512.768012712379
 30
0.0
 11
2218.6098656695658
 21
1257.022128507198
 31
0.0
  0
LINE
  5
BF4A
  8
OUTLINE
 62
    52
 10
318.60986566956848
 20
1268.8571919069159
 30
0.0
 11
1198.9098656695669
 21
1268.8571919069159
 31
0.0
  0
LINE
  5
BF4B
  8
OUTLINE
 62
    52
 10
2184.2098656695648
 20
1268.8571919069159
 30
0.0
 11
1447.6329461990149
 21
1268.8571919069159
 31
0.0
  0
SOLID
  5
BF4C
  8
OUTLINE
 62
    52
 10
318.60986566956848
 20
1273.8571919069159
 30
0.0
 11
318.60986566956848
 21
1263.8571919069159
 31
0.0
 12
288.60986566956848
 22
1268.8571919069159
 32
0.0
 13
288.60986566956848
 23
1268.8571919069159
 33
0.0
  0
SOLID
  5
BF4D
  8
OUTLINE
 62
    52
 10
2188.6098656695649
 20
1273.8571919069159
 30
0.0
 11
2188.6098656695649
 21
1263.8571919069159
 31
0.0
 12
2218.6098656695658
 22
1268.8571919069159
 32
0.0
 13
2218.6098656695658
 23
1268.8571919069159
 33
0.0
  0
LINE
  5
C0C1
  8
OUTLINE
 62
    52
 10
2697.0240635154109
 20
1040.339812108796
 30
0.0
 11
2697.0240635154109
 21
1351.7436028397331
 31
0.0
  0
LINE
  5
C0C2
  8
OUTLINE
 62
    52
 10
3404.4240635154119
 20
1059.3447307267979
 30
0.0
 11
3404.4240635154119
 21
1351.7436028397331
 31
0.0
  0
LINE
  5
C0C3
  8
OUTLINE
 62
    52
 10
2727.02406351541
 20
1337.264262608079
 30
0.0
 11
3374.4240635154119
 21
1337.264262608079
 31
0.0
  0
SOLID
  5
C0C5
  8
OUTLINE
 62
    52
 10
2727.02406351541
 20
1342.2642626080799
 30
0.0
 11
2727.02406351541
 21
1332.264262608079
 31
0.0
 12
2697.0240635154109
 22
1337.264262608079
 32
0.0
 13
2697.0240635154109
 23
1337.264262608079
 33
0.0
  0
SOLID
  5
C0C6
  8
OUTLINE
 62
    52
 10
3374.4240635154119
 20
1342.2642626080799
 30
0.0
 11
3374.4240635154119
 21
1332.264262608079
 31
0.0
 12
3404.4240635154119
 22
1337.264262608079
 32
0.0
 13
3404.4240635154119
 23
1337.264262608079
 33
0.0
  0
INSERT
  5
C0C7
  8
TEXT
  6
CONTINUOUS
  2
*U57
 10
0.0
 20
0.0
 30
0.0
  0
INSERT
  5
C0C8
  8
TEXT
  6
CONTINUOUS
  2
*U58
 10
0.0
 20
0.0
 30
0.0
  0
LINE
  5
C232
  8
OUTLINE
  6
CONTINUOUS
 10
361.06974964623168
 20
1030.344730726795
 30
0.0
 11
411.06974964623163
 21
1030.344730726795
 31
0.0
  0
LINE
  5
C233
  8
OUTLINE
  6
CONTINUOUS
 10
363.56974964623168
 20
1032.844730726795
 30
0.0
 11
408.56974964623168
 21
1032.844730726795
 31
0.0
  0
LINE
  5
C234
  8
OUTLINE
  6
CONTINUOUS
 10
404.56974964623168
 20
1023.344730726795
 30
0.0
 11
367.56974964623168
 21
1023.344730726795
 31
0.0
  0
LINE
  5
C235
  8
OUTLINE
  6
CONTINUOUS
 10
370.56974964623168
 20
1030.344730726795
 30
0.0
 11
401.56974964623151
 21
1030.344730726795
 31
0.0
  0
LINE
  5
C236
  8
OUTLINE
  6
CONTINUOUS
 10
361.06974964623168
 20
1100.344730726795
 30
0.0
 11
411.06974964623163
 21
1100.344730726795
 31
0.0
  0
LINE
  5
C237
  8
OUTLINE
  6
CONTINUOUS
 10
363.56974964623168
 20
1100.344730726795
 30
0.0
 11
363.56974964623168
 21
1032.844730726795
 31
0.0
  0
LINE
  5
C238
  8
OUTLINE
  6
CONTINUOUS
 10
361.06974964623168
 20
1100.344730726795
 30
0.0
 11
361.06974964623168
 21
1030.344730726795
 31
0.0
  0
ARC
  5
C239
  8
OUTLINE
  6
CONTINUOUS
 10
370.56974964623168
 20
1027.344730726795
 30
0.0
 40
3.0
 50
90.0
 51
180.0
  0
LINE
  5
C23A
  8
OUTLINE
  6
CONTINUOUS
 10
367.56974964623168
 20
1027.344730726795
 30
0.0
 11
367.56974964623168
 21
1023.344730726795
 31
0.0
  0
LINE
  5
C23B
  8
OUTLINE
  6
CONTINUOUS
 10
408.56974964623168
 20
1032.844730726795
 30
0.0
 11
408.56974964623168
 21
1100.344730726795
 31
0.0
  0
LINE
  5
C23C
  8
OUTLINE
  6
CONTINUOUS
 10
411.06974964623163
 20
1030.344730726795
 30
0.0
 11
411.06974964623163
 21
1100.344730726795
 31
0.0
  0
LINE
  5
C23D
  8
OUTLINE
  6
CONTINUOUS
 10
404.56974964623168
 20
1027.344730726795
 30
0.0
 11
404.56974964623168
 21
1023.344730726795
 31
0.0
  0
ARC
  5
C23E
  8
OUTLINE
  6
CONTINUOUS
 10
401.56974964623151
 20
1027.344730726795
 30
0.0
 40
3.0
 50
0.0
 51
90.0
  0
LINE
  5
C23F
  8
OUTLINE
  6
CONTINUOUS
 10
386.06974964623168
 20
1030.344730726795
 30
0.0
 11
386.06974964623168
 21
1023.344730726795
 31
0.0
  0
CIRCLE
  5
C240
  8
OUTLINE
  6
CONTINUOUS
 10
386.06974964623168
 20
1090.344730726795
 30
0.0
 40
4.75
  0
CIRCLE
  5
C241
  8
OUTLINE
  6
CONTINUOUS
 10
386.06974964623168
 20
1060.344730726795
 30
0.0
 40
4.75
  0
CIRCLE
  5
C242
  8
OUTLINE
  6
CONTINUOUS
 10
386.06974964623168
 20
1060.344730726795
 30
0.0
 40
4.75
  0
CIRCLE
  5
C243
  8
OUTLINE
  6
CONTINUOUS
 10
386.06974964623168
 20
1090.344730726795
 30
0.0
 40
4.75
  0
LINE
  5
C244
  8
OUTLINE
  6
CONTINUOUS
 10
314.49505951810443
 20
476.43488163427003
 30
0.0
 11
314.48709031796892
 21
507.18238652059893
 31
0.0
  0
LINE
  5
C245
  8
OUTLINE
  6
CONTINUOUS
 10
1766.0098656695429
 20
959.34473072679748
 30
0.0
 11
1816.0098656695429
 21
959.34473072679748
 31
0.0
  0
LINE
  5
C246
  8
OUTLINE
  6
CONTINUOUS
 10
1768.5098656695441
 20
961.84473072679759
 30
0.0
 11
1813.5098656695441
 21
961.84473072679759
 31
0.0
  0
LINE
  5
C247
  8
OUTLINE
  6
CONTINUOUS
 10
1809.5098656695441
 20
952.34473072679748
 30
0.0
 11
1772.5098656695429
 21
952.34473072679748
 31
0.0
  0
LINE
  5
C248
  8
OUTLINE
  6
CONTINUOUS
 10
1775.5098656695441
 20
959.34473072679748
 30
0.0
 11
1806.5098656695441
 21
959.34473072679748
 31
0.0
  0
LINE
  5
C249
  8
OUTLINE
  6
CONTINUOUS
 10
1766.0098656695429
 20
1029.344730726797
 30
0.0
 11
1816.0098656695429
 21
1029.344730726797
 31
0.0
  0
LINE
  5
C24A
  8
OUTLINE
  6
CONTINUOUS
 10
1768.5098656695441
 20
1029.344730726797
 30
0.0
 11
1768.5098656695441
 21
961.84473072679759
 31
0.0
  0
LINE
  5
C24B
  8
OUTLINE
  6
CONTINUOUS
 10
1766.0098656695429
 20
1029.344730726797
 30
0.0
 11
1766.0098656695429
 21
959.34473072679748
 31
0.0
  0
ARC
  5
C24C
  8
OUTLINE
  6
CONTINUOUS
 10
1775.5098656695441
 20
956.34473072679782
 30
0.0
 40
3.0
 50
90.0
 51
180.0
  0
LINE
  5
C24D
  8
OUTLINE
  6
CONTINUOUS
 10
1772.5098656695429
 20
956.34473072679782
 30
0.0
 11
1772.5098656695429
 21
952.34473072679748
 31
0.0
  0
LINE
  5
C24E
  8
OUTLINE
  6
CONTINUOUS
 10
1813.5098656695441
 20
961.84473072679759
 30
0.0
 11
1813.5098656695441
 21
1029.344730726797
 31
0.0
  0
LINE
  5
C24F
  8
OUTLINE
  6
CONTINUOUS
 10
1816.0098656695429
 20
959.34473072679748
 30
0.0
 11
1816.0098656695429
 21
1029.344730726797
 31
0.0
  0
LINE
  5
C250
  8
OUTLINE
  6
CONTINUOUS
 10
1809.5098656695441
 20
956.34473072679782
 30
0.0
 11
1809.5098656695441
 21
952.34473072679748
 31
0.0
  0
ARC
  5
C251
  8
OUTLINE
  6
CONTINUOUS
 10
1806.5098656695441
 20
956.34473072679782
 30
0.0
 40
3.0
 50
0.0
 51
90.0
  0
LINE
  5
C252
  8
OUTLINE
  6
CONTINUOUS
 10
1791.0098656695429
 20
959.34473072679748
 30
0.0
 11
1791.0098656695429
 21
952.34473072679748
 31
0.0
  0
CIRCLE
  5
C253
  8
OUTLINE
  6
CONTINUOUS
 10
1791.0098656695429
 20
1019.344730726797
 30
0.0
 40
4.75
  0
CIRCLE
  5
C254
  8
OUTLINE
  6
CONTINUOUS
 10
1791.0098656695429
 20
989.34473072679782
 30
0.0
 40
4.75
  0
CIRCLE
  5
C255
  8
OUTLINE
  6
CONTINUOUS
 10
1791.0098656695429
 20
989.34473072679782
 30
0.0
 40
4.75
  0
CIRCLE
  5
C256
  8
OUTLINE
  6
CONTINUOUS
 10
1791.0098656695429
 20
1019.344730726797
 30
0.0
 40
4.75
  0
LINE
  5
C257
  8
OUTLINE
  6
CONTINUOUS
 10
2122.8098656695452
 20
1030.344730726795
 30
0.0
 11
2172.8098656695452
 21
1030.344730726795
 31
0.0
  0
LINE
  5
C258
  8
OUTLINE
  6
CONTINUOUS
 10
2125.3098656695452
 20
1032.844730726795
 30
0.0
 11
2170.3098656695452
 21
1032.844730726795
 31
0.0
  0
LINE
  5
C259
  8
OUTLINE
  6
CONTINUOUS
 10
2166.3098656695438
 20
1023.344730726795
 30
0.0
 11
2129.3098656695452
 21
1023.344730726795
 31
0.0
  0
LINE
  5
C25A
  8
OUTLINE
  6
CONTINUOUS
 10
2132.3098656695452
 20
1030.344730726795
 30
0.0
 11
2163.3098656695452
 21
1030.344730726795
 31
0.0
  0
LINE
  5
C25B
  8
OUTLINE
  6
CONTINUOUS
 10
2122.8098656695452
 20
1100.344730726795
 30
0.0
 11
2172.8098656695452
 21
1100.344730726795
 31
0.0
  0
LINE
  5
C25C
  8
OUTLINE
  6
CONTINUOUS
 10
2125.3098656695452
 20
1100.344730726795
 30
0.0
 11
2125.3098656695452
 21
1032.844730726795
 31
0.0
  0
LINE
  5
C25D
  8
OUTLINE
  6
CONTINUOUS
 10
2122.8098656695452
 20
1100.344730726795
 30
0.0
 11
2122.8098656695452
 21
1030.344730726795
 31
0.0
  0
ARC
  5
C25E
  8
OUTLINE
  6
CONTINUOUS
 10
2132.3098656695452
 20
1027.344730726795
 30
0.0
 40
3.0
 50
90.0
 51
180.0
  0
LINE
  5
C25F
  8
OUTLINE
  6
CONTINUOUS
 10
2129.3098656695452
 20
1027.344730726795
 30
0.0
 11
2129.3098656695452
 21
1023.344730726795
 31
0.0
  0
LINE
  5
C260
  8
OUTLINE
  6
CONTINUOUS
 10
2170.3098656695452
 20
1032.844730726795
 30
0.0
 11
2170.3098656695452
 21
1100.344730726795
 31
0.0
  0
LINE
  5
C261
  8
OUTLINE
  6
CONTINUOUS
 10
2172.8098656695452
 20
1030.344730726795
 30
0.0
 11
2172.8098656695452
 21
1100.344730726795
 31
0.0
  0
LINE
  5
C262
  8
OUTLINE
  6
CONTINUOUS
 10
2166.3098656695438
 20
1027.344730726795
 30
0.0
 11
2166.3098656695438
 21
1023.344730726795
 31
0.0
  0
ARC
  5
C263
  8
OUTLINE
  6
CONTINUOUS
 10
2163.3098656695452
 20
1027.344730726795
 30
0.0
 40
3.0
 50
0.0
 51
90.0
  0
LINE
  5
C264
  8
OUTLINE
  6
CONTINUOUS
 10
2147.8098656695452
 20
1030.344730726795
 30
0.0
 11
2147.8098656695452
 21
1023.344730726795
 31
0.0
  0
CIRCLE
  5
C265
  8
OUTLINE
  6
CONTINUOUS
 10
2147.8098656695452
 20
1090.344730726795
 30
0.0
 40
4.75
  0
CIRCLE
  5
C266
  8
OUTLINE
  6
CONTINUOUS
 10
2147.8098656695452
 20
1060.344730726795
 30
0.0
 40
4.75
  0
CIRCLE
  5
C267
  8
OUTLINE
  6
CONTINUOUS
 10
2147.8098656695452
 20
1060.344730726795
 30
0.0
 40
4.75
  0
CIRCLE
  5
C268
  8
OUTLINE
  6
CONTINUOUS
 10
2147.8098656695452
 20
1090.344730726795
 30
0.0
 40
4.75
  0
LINE
  5
C26A
  8
OUTLINE
  6
CONTINUOUS
 10
2189.0098656695441
 20
516.54473072679855
 30
0.0
 11
2189.0098656695441
 21
497.37428387691762
 31
0.0
  0
LINE
  5
C270
  8
OUTLINE
 62
    52
 10
1791.0098656695429
 20
314.01038132948008
 30
0.0
 11
1791.0098656695429
 21
941.22428779989355
 31
0.0
  0
LINE
  5
C3BD
  8
OUTLINE
  6
CONTINUOUS
 10
1808.8162250897669
 20
564.09529028779605
 30
0.0
 11
2159.414689078546
 21
564.09529028779696
 31
0.0
  0
LINE
  5
C3BE
  8
OUTLINE
  6
CONTINUOUS
 10
1808.816225089764
 20
564.09529028779696
 30
0.0
 11
2173.8162250898281
 21
564.09529028779696
 31
0.0
  0
LINE
  5
C3BF
  8
OUTLINE
  6
CONTINUOUS
 10
2173.8162250898281
 20
564.09529028779605
 30
0.0
 11
2173.8162250898281
 21
946.49529028779614
 31
0.0
  0
LINE
  5
C3C0
  8
OUTLINE
  6
CONTINUOUS
 10
2651.2240635154089
 20
564.09529028779548
 30
0.0
 11
2651.2240635154121
 21
946.49529028779523
 31
0.0
  0
LINE
  5
C8E4
  8
OUTLINE
 62
    52
 10
353.56974964623168
 20
1032.844730726795
 30
0.0
 11
240.2709215074122
 21
1032.844730726795
 31
0.0
  0
LINE
  5
C8E5
  8
OUTLINE
 62
    52
 10
277.60986566951942
 20
1130.5447307267971
 30
0.0
 11
252.2754490053743
 21
1130.5447307267971
 31
0.0
  0
LINE
  5
C8E6
  8
OUTLINE
 62
    52
 10
256.4569613718304
 20
1062.844730726795
 30
0.0
 11
256.4569613718304
 21
1100.5447307267971
 31
0.0
  0
SOLID
  5
C8E8
  8
OUTLINE
 62
    52
 10
251.4569613718304
 20
1062.844730726795
 30
0.0
 11
261.4569613718304
 21
1062.844730726795
 31
0.0
 12
256.4569613718304
 22
1032.844730726795
 32
0.0
 13
256.4569613718304
 23
1032.844730726795
 33
0.0
  0
SOLID
  5
C8E9
  8
OUTLINE
 62
    52
 10
251.4569613718304
 20
1100.5447307267971
 30
0.0
 11
261.4569613718304
 21
1100.5447307267971
 31
0.0
 12
256.4569613718304
 22
1130.5447307267971
 32
0.0
 13
256.4569613718304
 23
1130.5447307267971
 33
0.0
  0
INSERT
  5
C8EA
  8
TEXT
  6
CONTINUOUS
  2
*U59
 10
0.0
 20
0.0
 30
0.0
  0
LINE
  5
C8EB
  8
OUTLINE
 62
    52
 10
1752.581100712837
 20
961.84473072679759
 30
0.0
 11
1711.0136220249881
 21
961.84473072679759
 31
0.0
  0
LINE
  5
C8ED
  8
OUTLINE
 62
    52
 10
1717.1223869816949
 20
991.84473072679782
 30
0.0
 11
1717.1223869816949
 21
1006.194730726842
 31
0.0
  0
LINE
  5
C8EE
  8
OUTLINE
 62
    52
 10
1717.1223869816949
 20
1100.544730726886
 30
0.0
 11
1717.1223869816949
 21
1086.194730726842
 31
0.0
  0
SOLID
  5
C8EF
  8
OUTLINE
 62
    52
 10
1712.1223869816949
 20
991.84473072679782
 30
0.0
 11
1722.1223869816949
 21
991.84473072679782
 31
0.0
 12
1717.1223869816949
 22
961.84473072679759
 32
0.0
 13
1717.1223869816949
 23
961.84473072679759
 33
0.0
  0
SOLID
  5
C8F0
  8
OUTLINE
 62
    52
 10
1712.1223869816949
 20
1100.544730726886
 30
0.0
 11
1722.1223869816949
 21
1100.544730726886
 31
0.0
 12
1717.1223869816949
 22
1130.544730726886
 32
0.0
 13
1717.1223869816949
 23
1130.544730726886
 33
0.0
  0
INSERT
  5
C8F1
  8
TEXT
  6
CONTINUOUS
  2
*U60
 10
0.0
 20
0.0
 30
0.0
  0
TEXT
  5
CDF1
  8
OUTLINE
  6
CONTINUOUS
 62
    52
 10
1208.759574535082
 20
1253.8571919069159
 30
0.0
 40
30.0
  1
1930 O/A
  7
TITLE3
  0
ENDSEC
  0
EOF
